  0
SECTION
  2
HEADER
  9
$ACADVER
  1
AC1015
  9
$ACADMAINTVER
 70
     6
  9
$DWGCODEPAGE
  3
ANSI_1252
  9
$INSBASE
 10
0.0
 20
0.0
 30
0.0
  9
$EXTMIN
 10
0.0
 20
0.0
 30
0.0
  9
$EXTMAX
 10
11.0
 20
8.5
 30
0.0
  9
$LIMMIN
 10
0.0
 20
0.0
  9
$LIMMAX
 10
11.0
 20
8.5
  9
$ORTHOMODE
 70
     0
  9
$REGENMODE
 70
     1
  9
$FILLMODE
 70
     1
  9
$QTEXTMODE
 70
     0
  9
$MIRRTEXT
 70
     1
  9
$LTSCALE
 40
1.0
  9
$ATTMODE
 70
     1
  9
$TEXTSIZE
 40
0.1666666667
  9
$TRACEWID
 40
0.05
  9
$TEXTSTYLE
  7
Standard
  9
$CLAYER
  8
0
  9
$CELTYPE
  6
ByLayer
  9
$CECOLOR
 62
   256
  9
$CELTSCALE
 40
1.0
  9
$DISPSILH
 70
     0
  9
$DIMSCALE
 40
1.0
  9
$DIMASZ
 40
0.09
  9
$DIMEXO
 40
0.05
  9
$DIMDLI
 40
0.38
  9
$DIMRND
 40
0.0
  9
$DIMDLE
 40
0.0
  9
$DIMEXE
 40
0.0625
  9
$DIMTP
 40
0.0
  9
$DIMTM
 40
0.0
  9
$DIMTXT
 40
0.1666666667
  9
$DIMCEN
 40
0.09
  9
$DIMTSZ
 40
0.0
  9
$DIMTOL
 70
     0
  9
$DIMLIM
 70
     0
  9
$DIMTIH
 70
     1
  9
$DIMTOH
 70
     1
  9
$DIMSE1
 70
     0
  9
$DIMSE2
 70
     0
  9
$DIMTAD
 70
     0
  9
$DIMZIN
 70
     0
  9
$DIMBLK
  1

  9
$DIMASO
 70
     1
  9
$DIMSHO
 70
     1
  9
$DIMPOST
  1

  9
$DIMAPOST
  1

  9
$DIMALT
 70
     0
  9
$DIMALTD
 70
     2
  9
$DIMALTF
 40
25.4
  9
$DIMLFAC
 40
1.0
  9
$DIMTOFL
 70
     0
  9
$DIMTVP
 40
0.0
  9
$DIMTIX
 70
     0
  9
$DIMSOXD
 70
     0
  9
$DIMSAH
 70
     0
  9
$DIMBLK1
  1

  9
$DIMBLK2
  1

  9
$DIMSTYLE
  2
Standard
  9
$DIMCLRD
 70
     0
  9
$DIMCLRE
 70
     0
  9
$DIMCLRT
 70
     0
  9
$DIMTFAC
 40
1.0
  9
$DIMGAP
 40
0.06
  9
$DIMJUST
 70
     0
  9
$DIMSD1
 70
     0
  9
$DIMSD2
 70
     0
  9
$DIMTOLJ
 70
     1
  9
$DIMTZIN
 70
     0
  9
$DIMALTZ
 70
     0
  9
$DIMALTTZ
 70
     0
  9
$DIMUPT
 70
     0
  9
$DIMDEC
 70
     2
  9
$DIMTDEC
 70
     2
  9
$DIMALTU
 70
     2
  9
$DIMALTTD
 70
     2
  9
$DIMTXSTY
  7
Standard
  9
$DIMAUNIT
 70
     0
  9
$DIMADEC
 70
     0
  9
$DIMALTRND
 40
0.0
  9
$DIMAZIN
 70
     0
  9
$DIMDSEP
 70
    46
  9
$DIMATFIT
 70
     3
  9
$DIMFRAC
 70
     0
  9
$DIMLDRBLK
  1

  9
$DIMLUNIT
 70
     2
  9
$DIMLWD
 70
    -2
  9
$DIMLWE
 70
    -2
  9
$DIMTMOVE
 70
     0
  9
$LUNITS
 70
     2
  9
$LUPREC
 70
     2
  9
$SKETCHINC
 40
0.1
  9
$FILLETRAD
 40
0.5
  9
$AUNITS
 70
     0
  9
$AUPREC
 70
     0
  9
$MENU
  1
.
  9
$ELEVATION
 40
0.0
  9
$PELEVATION
 40
0.0
  9
$THICKNESS
 40
0.0
  9
$LIMCHECK
 70
     0
  9
$CHAMFERA
 40
0.0
  9
$CHAMFERB
 40
0.0
  9
$CHAMFERC
 40
0.0
  9
$CHAMFERD
 40
0.0
  9
$SKPOLY
 70
     0
  9
$TDCREATE
 40
2456860.693023808
  9
$TDUCREATE
 40
2456860.901357141
  9
$TDUPDATE
 40
2456860.69302441
  9
$TDUUPDATE
 40
2456860.901357743
  9
$TDINDWG
 40
0.0000000116
  9
$TDUSRTIMER
 40
0.0000000116
  9
$USRTIMER
 70
     1
  9
$ANGBASE
 50
0.0
  9
$ANGDIR
 70
     0
  9
$PDMODE
 70
     0
  9
$PDSIZE
 40
-1.0
  9
$PLINEWID
 40
0.0
  9
$SPLFRAME
 70
     0
  9
$SPLINETYPE
 70
     6
  9
$SPLINESEGS
 70
     8
  9
$HANDSEED
  5
485
  9
$SURFTAB1
 70
     6
  9
$SURFTAB2
 70
     6
  9
$SURFTYPE
 70
     6
  9
$SURFU
 70
     6
  9
$SURFV
 70
     6
  9
$UCSBASE
  2

  9
$UCSNAME
  2

  9
$UCSORG
 10
0.0
 20
0.0
 30
0.0
  9
$UCSXDIR
 10
1.0
 20
0.0
 30
0.0
  9
$UCSYDIR
 10
0.0
 20
1.0
 30
0.0
  9
$UCSORTHOREF
  2

  9
$UCSORTHOVIEW
 70
     0
  9
$UCSORGTOP
 10
0.0
 20
0.0
 30
0.0
  9
$UCSORGBOTTOM
 10
0.0
 20
0.0
 30
0.0
  9
$UCSORGLEFT
 10
0.0
 20
0.0
 30
0.0
  9
$UCSORGRIGHT
 10
0.0
 20
0.0
 30
0.0
  9
$UCSORGFRONT
 10
0.0
 20
0.0
 30
0.0
  9
$UCSORGBACK
 10
0.0
 20
0.0
 30
0.0
  9
$PUCSBASE
  2

  9
$PUCSNAME
  2

  9
$PUCSORG
 10
0.0
 20
0.0
 30
0.0
  9
$PUCSXDIR
 10
1.0
 20
0.0
 30
0.0
  9
$PUCSYDIR
 10
0.0
 20
1.0
 30
0.0
  9
$PUCSORTHOREF
  2

  9
$PUCSORTHOVIEW
 70
     0
  9
$PUCSORGTOP
 10
0.0
 20
0.0
 30
0.0
  9
$PUCSORGBOTTOM
 10
0.0
 20
0.0
 30
0.0
  9
$PUCSORGLEFT
 10
0.0
 20
0.0
 30
0.0
  9
$PUCSORGRIGHT
 10
0.0
 20
0.0
 30
0.0
  9
$PUCSORGFRONT
 10
0.0
 20
0.0
 30
0.0
  9
$PUCSORGBACK
 10
0.0
 20
0.0
 30
0.0
  9
$USERI1
 70
     0
  9
$USERI2
 70
     0
  9
$USERI3
 70
     0
  9
$USERI4
 70
     0
  9
$USERI5
 70
     0
  9
$USERR1
 40
0.0
  9
$USERR2
 40
0.0
  9
$USERR3
 40
0.0
  9
$USERR4
 40
0.0
  9
$USERR5
 40
0.0
  9
$WORLDVIEW
 70
     1
  9
$SHADEDGE
 70
     3
  9
$SHADEDIF
 70
    70
  9
$TILEMODE
 70
     1
  9
$MAXACTVP
 70
    64
  9
$PINSBASE
 10
0.0
 20
0.0
 30
0.0
  9
$PLIMCHECK
 70
     0
  9
$PEXTMIN
 10
1.0000000000E+20
 20
1.0000000000E+20
 30
1.0000000000E+20
  9
$PEXTMAX
 10
-1.0000000000E+20
 20
-1.0000000000E+20
 30
-1.0000000000E+20
  9
$PLIMMIN
 10
0.0
 20
0.0
  9
$PLIMMAX
 10
12.0
 20
9.0
  9
$UNITMODE
 70
     0
  9
$VISRETAIN
 70
     1
  9
$PLINEGEN
 70
     0
  9
$PSLTSCALE
 70
     1
  9
$TREEDEPTH
 70
  3020
  9
$CMLSTYLE
  2
Standard
  9
$CMLJUST
 70
     0
  9
$CMLSCALE
 40
1.0
  9
$PROXYGRAPHICS
 70
     1
  9
$MEASUREMENT
 70
     0
  9
$CELWEIGHT
370
    -1
  9
$ENDCAPS
280
     0
  9
$JOINSTYLE
280
     0
  9
$LWDISPLAY
290
     1
  9
$INSUNITS
 70
     1
  9
$HYPERLINKBASE
  1

  9
$STYLESHEET
  1

  9
$XEDIT
290
     1
  9
$CEPSNTYPE
380
     0
  9
$PSTYLEMODE
290
     1
  9
$FINGERPRINTGUID
  2
{75A2FC8A-5F74-43B3-B610-69D865224CD9}
  9
$VERSIONGUID
  2
{FAEB1C32-E019-11D5-929B-00C0DF256EC4}
  9
$EXTNAMES
290
     1
  9
$PSVPSCALE
 40
0.0
  9
$OLESTARTUP
290
     0
  0
ENDSEC
  0
SECTION
  2
CLASSES
  0
CLASS
  1
ACDBDICTIONARYWDFLT
  2
AcDbDictionaryWithDefault
  3
ObjectDBX Classes
 90
        0
280
     0
281
     0
  0
CLASS
  1
VISUALSTYLE
  2
AcDbVisualStyle
  3
ObjectDBX Classes
 90
     4095
280
     0
281
     0
  0
CLASS
  1
MATERIAL
  2
AcDbMaterial
  3
ObjectDBX Classes
 90
     1153
280
     0
281
     0
  0
CLASS
  1
SCALE
  2
AcDbScale
  3
ObjectDBX Classes
 90
     1153
280
     0
281
     0
  0
CLASS
  1
SUN
  2
AcDbSun
  3
SCENEOE
 90
     1153
280
     0
281
     0
  0
CLASS
  1
ACDBPLACEHOLDER
  2
AcDbPlaceHolder
  3
ObjectDBX Classes
 90
        0
280
     0
281
     0
  0
CLASS
  1
LAYOUT
  2
AcDbLayout
  3
ObjectDBX Classes
 90
        0
280
     0
281
     0
  0
ENDSEC
  0
SECTION
  2
TABLES
  0
TABLE
  2
VPORT
  5
8
330
0
100
AcDbSymbolTable
 70
     1
  0
VPORT
  5
29
330
8
100
AcDbSymbolTableRecord
100
AcDbViewportTableRecord
  2
*Active
 70
     0
 10
0.0
 20
0.0
 11
1.0
 21
1.0
 12
5.5
 22
4.25
 13
0.0
 23
0.0
 14
0.5
 24
0.5
 15
0.5
 25
0.5
 16
0.0
 26
0.0
 36
1.0
 17
0.0
 27
0.0
 37
0.0
 40
8.5
 41
1.2941176471
 42
50.0
 43
0.0
 44
0.0
 50
0.0
 51
0.0
 71
     0
 72
  2000
 73
     1
 74
     3
 75
     0
 76
     0
 77
     0
 78
     0
281
     0
 65
     1
110
0.0
120
0.0
130
0.0
111
1.0
121
0.0
131
0.0
112
0.0
122
1.0
132
0.0
 79
     0
146
0.0
  0
ENDTAB
  0
TABLE
  2
LTYPE
  5
5
330
0
100
AcDbSymbolTable
 70
     6
  0
LTYPE
  5
14
330
5
100
AcDbSymbolTableRecord
100
AcDbLinetypeTableRecord
  2
ByBlock
 70
     0
  3

 72
    65
 73
     0
 40
0.0
  0
LTYPE
  5
15
330
5
100
AcDbSymbolTableRecord
100
AcDbLinetypeTableRecord
  2
ByLayer
 70
     0
  3

 72
    65
 73
     0
 40
0.0
  0
LTYPE
  5
16
330
5
100
AcDbSymbolTableRecord
100
AcDbLinetypeTableRecord
  2
Continuous
 70
     0
  3
Solid line
 72
    65
 73
     0
 40
0.0
  0
LTYPE
  5
6A
330
5
100
AcDbSymbolTableRecord
100
AcDbLinetypeTableRecord
  2
HIDDEN
 70
     0
  3
Hidden __ __ __ __ __ __ __ __ __ __ __ __ __ __
 72
    65
 73
     2
 40
0.075
 49
0.05
 74
     0
 49
-0.025
 74
     0
  0
LTYPE
  5
6B
330
5
100
AcDbSymbolTableRecord
100
AcDbLinetypeTableRecord
  2
PHANTOM
 70
     0
  3
Phantom ______  __  __  ______  __  __  ______
 72
    65
 73
     6
 40
0.5
 49
0.25
 74
     0
 49
-0.05
 74
     0
 49
0.05
 74
     0
 49
-0.05
 74
     0
 49
0.05
 74
     0
 49
-0.05
 74
     0
  0
LTYPE
  5
6C
330
5
100
AcDbSymbolTableRecord
100
AcDbLinetypeTableRecord
  2
CENTER
 70
     0
  3
Center ____ _ ____ _ ____ _ ____ _ ____ _ ____
 72
    65
 73
     4
 40
0.4
 49
0.25
 74
     0
 49
-0.05
 74
     0
 49
0.05
 74
     0
 49
-0.05
 74
     0
  0
LTYPE
  5
6D
330
5
100
AcDbSymbolTableRecord
100
AcDbLinetypeTableRecord
  2
CENTERX2
 70
     0
  3
Center (2x) ________  __  ________  __  _____
 72
    65
 73
     4
 40
0.8
 49
0.5
 74
     0
 49
-0.1
 74
     0
 49
0.1
 74
     0
 49
-0.1
 74
     0
  0
LTYPE
  5
6E
330
5
100
AcDbSymbolTableRecord
100
AcDbLinetypeTableRecord
  2
DOT2
 70
     0
  3
Dot (.5x) ........................................
 72
    65
 73
     2
 40
0.025
 49
0.0
 74
     0
 49
-0.025
 74
     0
  0
ENDTAB
  0
TABLE
  2
LAYER
  5
2
330
0
100
AcDbSymbolTable
 70
     2
  0
LAYER
  5
10
330
2
100
AcDbSymbolTableRecord
100
AcDbLayerTableRecord
  2
0
 70
     0
 62
     7
  6
Continuous
370
    -3
390
F
  0
LAYER
  5
6F
330
2
100
AcDbSymbolTableRecord
100
AcDbLayerTableRecord
  2
FORMAT
 70
     0
 62
     7
  6
Continuous
370
    -3
390
F
  0
ENDTAB
  0
TABLE
  2
STYLE
  5
3
330
0
100
AcDbSymbolTable
 70
     1
  0
STYLE
  5
11
330
3
100
AcDbSymbolTableRecord
100
AcDbTextStyleTableRecord
  2
Standard
 70
     0
 40
0.0
 41
1.0
 50
0.0
 71
     0
 42
0.1666666667
  3
txt
  4

  0
ENDTAB
  0
TABLE
  2
VIEW
  5
6
330
0
100
AcDbSymbolTable
 70
     0
  0
ENDTAB
  0
TABLE
  2
UCS
  5
7
330
0
100
AcDbSymbolTable
 70
     0
  0
ENDTAB
  0
TABLE
  2
APPID
  5
9
330
0
100
AcDbSymbolTable
 70
     1
  0
APPID
  5
12
330
9
100
AcDbSymbolTableRecord
100
AcDbRegAppTableRecord
  2
ACAD
 70
     0
  0
ENDTAB
  0
TABLE
  2
DIMSTYLE
  5
A
330
0
100
AcDbSymbolTable
 70
     1
100
AcDbDimStyleTable
  0
DIMSTYLE
105
27
330
A
100
AcDbSymbolTableRecord
100
AcDbDimStyleTableRecord
  2
Standard
 70
     0
178
     0
340
11
  0
ENDTAB
  0
TABLE
  2
BLOCK_RECORD
  5
1
330
0
100
AcDbSymbolTable
 70
     1
  0
BLOCK_RECORD
  5
1F
330
1
100
AcDbSymbolTableRecord
100
AcDbBlockTableRecord
  2
*Model_Space
340
22
  0
BLOCK_RECORD
  5
1B
330
1
100
AcDbSymbolTableRecord
100
AcDbBlockTableRecord
  2
*Paper_Space
340
1E
  0
BLOCK_RECORD
  5
23
330
1
100
AcDbSymbolTableRecord
100
AcDbBlockTableRecord
  2
*Paper_Space0
340
26
  0
ENDTAB
  0
ENDSEC
  0
SECTION
  2
BLOCKS
  0
BLOCK
  5
20
330
1F
100
AcDbEntity
  8
0
100
AcDbBlockBegin
  2
*Model_Space
 70
     0
 10
0.0
 20
0.0
 30
0.0
  3
*Model_Space
  1
*Model_Space
  0
ENDBLK
  5
21
330
1F
100
AcDbEntity
  8
0
100
AcDbBlockEnd
  0
BLOCK
  5
1C
330
1B
100
AcDbEntity
 67
     1
  8
0
100
AcDbBlockBegin
  2
*Paper_Space
 70
     0
 10
0.0
 20
0.0
 30
0.0
  3
*Paper_Space
  1
*Paper_Space
  0
ENDBLK
  5
1D
330
1B
100
AcDbEntity
 67
     1
  8
0
100
AcDbBlockEnd
  0
BLOCK
  5
24
330
23
100
AcDbEntity
  8
0
100
AcDbBlockBegin
  2
*Paper_Space0
 70
     0
 10
0.0
 20
0.0
 30
0.0
  3
*Paper_Space0
  1
*Paper_Space0
  0
ENDBLK
  5
25
330
23
100
AcDbEntity
  8
0
100
AcDbBlockEnd
  0
ENDSEC
  0
SECTION
  2
ENTITIES
  0
LINE
  5
70
330
1F
100
AcDbEntity
  8
0
  6
Continuous
 62
     7
370
    30
100
AcDbLine
 10
6.9933915923
 20
3.3136185227
 30
0.0
 11
7.0178916093
 21
3.2994734194
 31
0.0
  0
LINE
  5
71
330
1F
100
AcDbEntity
  8
0
  6
Continuous
 62
     7
370
    30
100
AcDbLine
 10
7.1588916471
 20
3.2994734194
 30
0.0
 11
7.1833915908
 21
3.3136185227
 31
0.0
  0
LINE
  5
72
330
1F
100
AcDbEntity
  8
0
  6
Continuous
 62
     7
370
    30
100
AcDbLine
 10
7.1833915908
 20
3.4247296325
 30
0.0
 11
7.1588916471
 21
3.4388747357
 31
0.0
  0
LINE
  5
73
330
1F
100
AcDbEntity
  8
0
  6
Continuous
 62
     7
370
    30
100
AcDbLine
 10
7.0178916093
 20
3.4388747357
 30
0.0
 11
6.9933915923
 21
3.4247296325
 31
0.0
  0
LINE
  5
74
330
1F
100
AcDbEntity
  8
0
  6
Continuous
 62
     7
370
    30
100
AcDbLine
 10
6.9933915923
 20
3.2580630045
 30
0.0
 11
7.0178916093
 21
3.2439179012
 31
0.0
  0
LINE
  5
75
330
1F
100
AcDbEntity
  8
0
  6
Continuous
 62
     7
370
    30
100
AcDbLine
 10
7.1588916471
 20
3.2439179012
 30
0.0
 11
7.1833915908
 21
3.2580630045
 31
0.0
  0
LINE
  5
76
330
1F
100
AcDbEntity
  8
0
  6
Continuous
 62
     7
370
    30
100
AcDbLine
 10
7.1809427257
 20
3.2039213366
 30
0.0
 11
7.1588916471
 21
3.2166525895
 31
0.0
  0
LINE
  5
77
330
1F
100
AcDbEntity
  8
0
  6
Continuous
 62
     7
370
    30
100
AcDbLine
 10
7.0178916093
 20
3.2166525895
 30
0.0
 11
6.9958405307
 21
3.2039213366
 31
0.0
  0
LINE
  5
78
330
1F
100
AcDbEntity
  8
0
  6
Continuous
 62
     7
370
    30
100
AcDbLine
 10
6.9933915923
 20
2.6469518641
 30
0.0
 11
7.0178916093
 21
2.6328067608
 31
0.0
  0
LINE
  5
79
330
1F
100
AcDbEntity
  8
0
  6
Continuous
 62
     7
370
    30
100
AcDbLine
 10
7.1588916471
 20
2.6328067608
 30
0.0
 11
7.1833915908
 21
2.6469518641
 31
0.0
  0
LINE
  5
7A
330
1F
100
AcDbEntity
  8
0
  6
Continuous
 62
     7
370
    30
100
AcDbLine
 10
6.9933915923
 20
3.4247296325
 30
0.0
 11
7.0178916093
 21
3.4105846025
 31
0.0
  0
LINE
  5
7B
330
1F
100
AcDbEntity
  8
0
  6
Continuous
 62
     7
370
    30
100
AcDbLine
 10
7.1588916471
 20
3.4105846025
 30
0.0
 11
7.1833915908
 21
3.4247296325
 31
0.0
  0
LINE
  5
7C
330
1F
100
AcDbEntity
  8
0
  6
Continuous
 62
     7
370
    30
100
AcDbLine
 10
7.1833915908
 20
3.3691740409
 30
0.0
 11
7.1588916471
 21
3.3833191442
 31
0.0
  0
LINE
  5
7D
330
1F
100
AcDbEntity
  8
0
  6
Continuous
 62
     7
370
    30
100
AcDbLine
 10
7.0178916093
 20
3.3833191442
 30
0.0
 11
6.9933915923
 21
3.3691740409
 31
0.0
  0
LINE
  5
7E
330
1F
100
AcDbEntity
  8
0
  6
Continuous
 62
     7
370
    30
100
AcDbLine
 10
7.1833915908
 20
3.646951852
 30
0.0
 11
7.1588916471
 21
3.6610969553
 31
0.0
  0
LINE
  5
7F
330
1F
100
AcDbEntity
  8
0
  6
Continuous
 62
     7
370
    30
100
AcDbLine
 10
7.0178916093
 20
3.6610969553
 30
0.0
 11
6.9933915923
 21
3.646951852
 31
0.0
  0
LINE
  5
80
330
1F
100
AcDbEntity
  8
0
  6
Continuous
 62
     7
370
    30
100
AcDbLine
 10
6.9933915923
 20
3.5913963338
 30
0.0
 11
7.0178916093
 21
3.5772512305
 31
0.0
  0
LINE
  5
81
330
1F
100
AcDbEntity
  8
0
  6
Continuous
 62
     7
370
    30
100
AcDbLine
 10
7.1588916471
 20
3.5772512305
 30
0.0
 11
7.1833915908
 21
3.5913963338
 31
0.0
  0
LINE
  5
82
330
1F
100
AcDbEntity
  8
0
  6
Continuous
 62
     7
370
    30
100
AcDbLine
 10
7.1833915908
 20
4.7025074406
 30
0.0
 11
7.1671776314
 21
4.7118685525
 31
0.0
  0
LINE
  5
83
330
1F
100
AcDbEntity
  8
0
  6
Continuous
 62
     7
370
    30
100
AcDbLine
 10
7.0096055517
 20
4.7118685525
 30
0.0
 11
6.9933915923
 21
4.7025074406
 31
0.0
  0
LINE
  5
84
330
1F
100
AcDbEntity
  8
0
  6
Continuous
 62
     7
370
    30
100
AcDbLine
 10
7.1833915908
 20
2.5913963459
 30
0.0
 11
7.1588916471
 21
2.6055414491
 31
0.0
  0
LINE
  5
85
330
1F
100
AcDbEntity
  8
0
  6
Continuous
 62
     7
370
    30
100
AcDbLine
 10
7.0178916093
 20
2.6055414491
 30
0.0
 11
6.9933915923
 21
2.5913963459
 31
0.0
  0
LINE
  5
86
330
1F
100
AcDbEntity
  8
0
  6
Continuous
 62
     7
370
    30
100
AcDbLine
 10
7.1833915908
 20
2.7580630472
 30
0.0
 11
7.161120368
 21
2.770921312
 31
0.0
  0
LINE
  5
87
330
1F
100
AcDbEntity
  8
0
  6
Continuous
 62
     7
370
    30
100
AcDbLine
 10
7.0156628884
 20
2.770921312
 30
0.0
 11
6.9933915923
 21
2.7580630472
 31
0.0
  0
LINE
  5
88
330
1F
100
AcDbEntity
  8
0
  6
Continuous
 62
     7
370
    30
100
AcDbLine
 10
7.1833915908
 20
3.3136185227
 30
0.0
 11
7.1588916471
 21
3.327763626
 31
0.0
  0
LINE
  5
89
330
1F
100
AcDbEntity
  8
0
  6
Continuous
 62
     7
370
    30
100
AcDbLine
 10
7.0178916093
 20
3.327763626
 30
0.0
 11
6.9933915923
 21
3.3136185227
 31
0.0
  0
LINE
  5
8A
330
1F
100
AcDbEntity
  8
0
  6
Continuous
 62
     7
370
    30
100
AcDbLine
 10
6.9933915923
 20
2.7025073823
 30
0.0
 11
7.0178916093
 21
2.6883624257
 31
0.0
  0
LINE
  5
8B
330
1F
100
AcDbEntity
  8
0
  6
Continuous
 62
     7
370
    30
100
AcDbLine
 10
7.1588916471
 20
2.6883624257
 30
0.0
 11
7.1833915908
 21
2.7025073823
 31
0.0
  0
LINE
  5
8C
330
1F
100
AcDbEntity
  8
0
  6
Continuous
 62
     7
370
    30
100
AcDbLine
 10
7.1833915908
 20
3.2580630045
 30
0.0
 11
7.1588916471
 21
3.2722081077
 31
0.0
  0
LINE
  5
8D
330
1F
100
AcDbEntity
  8
0
  6
Continuous
 62
     7
370
    30
100
AcDbLine
 10
7.0178916093
 20
3.2722081077
 30
0.0
 11
6.9933915923
 21
3.2580630045
 31
0.0
  0
LINE
  5
8E
330
1F
100
AcDbEntity
  8
0
  6
Continuous
 62
     7
370
    30
100
AcDbLine
 10
7.1833915908
 20
4.3136185473
 30
0.0
 11
7.1588916471
 21
4.3277636505
 31
0.0
  0
LINE
  5
8F
330
1F
100
AcDbEntity
  8
0
  6
Continuous
 62
     7
370
    30
100
AcDbLine
 10
7.0178916093
 20
4.3277636505
 30
0.0
 11
6.9933915923
 21
4.3136185473
 31
0.0
  0
LINE
  5
90
330
1F
100
AcDbEntity
  8
0
  6
Continuous
 62
     7
370
    30
100
AcDbLine
 10
6.9933915923
 20
4.2580629924
 30
0.0
 11
7.0178916093
 21
4.2439179258
 31
0.0
  0
LINE
  5
91
330
1F
100
AcDbEntity
  8
0
  6
Continuous
 62
     7
370
    30
100
AcDbLine
 10
7.1588916471
 20
4.2439179258
 30
0.0
 11
7.1833915908
 21
4.2580629924
 31
0.0
  0
LINE
  5
92
330
1F
100
AcDbEntity
  8
0
  6
Continuous
 62
     7
370
    30
100
AcDbLine
 10
7.1833915908
 20
3.5913963338
 30
0.0
 11
7.1588916471
 21
3.605541437
 31
0.0
  0
LINE
  5
93
330
1F
100
AcDbEntity
  8
0
  6
Continuous
 62
     7
370
    30
100
AcDbLine
 10
7.0178916093
 20
3.605541437
 30
0.0
 11
6.9933915923
 21
3.5913963338
 31
0.0
  0
LINE
  5
94
330
1F
100
AcDbEntity
  8
0
  6
Continuous
 62
     7
370
    30
100
AcDbLine
 10
7.1833915908
 20
2.5358408276
 30
0.0
 11
7.1588916471
 21
2.5499857842
 31
0.0
  0
LINE
  5
95
330
1F
100
AcDbEntity
  8
0
  6
Continuous
 62
     7
370
    30
100
AcDbLine
 10
7.0178916093
 20
2.5499857842
 30
0.0
 11
6.9933915923
 21
2.5358408276
 31
0.0
  0
LINE
  5
96
330
1F
100
AcDbEntity
  8
0
  6
Continuous
 62
     7
370
    30
100
AcDbLine
 10
6.9933915923
 20
4.7025074406
 30
0.0
 11
7.0178916093
 21
4.6883623603
 31
0.0
  0
LINE
  5
97
330
1F
100
AcDbEntity
  8
0
  6
Continuous
 62
     7
370
    30
100
AcDbLine
 10
7.1588916471
 20
4.6883623603
 30
0.0
 11
7.1833915908
 21
4.7025074406
 31
0.0
  0
LINE
  5
98
330
1F
100
AcDbEntity
  8
0
  6
Continuous
 62
     7
370
    30
100
AcDbLine
 10
6.9933915923
 20
3.3691740409
 30
0.0
 11
7.0178916093
 21
3.3550290843
 31
0.0
  0
LINE
  5
99
330
1F
100
AcDbEntity
  8
0
  6
Continuous
 62
     7
370
    30
100
AcDbLine
 10
7.1588916471
 20
3.3550290843
 30
0.0
 11
7.1833915908
 21
3.3691740409
 31
0.0
  0
LINE
  5
9A
330
1F
100
AcDbEntity
  8
0
  6
Continuous
 62
     7
370
    30
100
AcDbLine
 10
7.1833915908
 20
2.7025073823
 30
0.0
 11
7.1588916471
 21
2.7166524856
 31
0.0
  0
LINE
  5
9B
330
1F
100
AcDbEntity
  8
0
  6
Continuous
 62
     7
370
    30
100
AcDbLine
 10
7.0178916093
 20
2.7166524856
 30
0.0
 11
6.9933915923
 21
2.7025073823
 31
0.0
  0
LINE
  5
9C
330
1F
100
AcDbEntity
  8
0
  6
Continuous
 62
     7
370
    30
100
AcDbLine
 10
7.1833915908
 20
2.6469518641
 30
0.0
 11
7.1588916471
 21
2.6610969673
 31
0.0
  0
LINE
  5
9D
330
1F
100
AcDbEntity
  8
0
  6
Continuous
 62
     7
370
    30
100
AcDbLine
 10
7.0178916093
 20
2.6610969673
 30
0.0
 11
6.9933915923
 21
2.6469518641
 31
0.0
  0
LINE
  5
9E
330
1F
100
AcDbEntity
  8
0
  6
Continuous
 62
     7
370
    30
100
AcDbLine
 10
6.9933915923
 20
2.5913963459
 30
0.0
 11
7.0178916093
 21
2.5772512426
 31
0.0
  0
LINE
  5
9F
330
1F
100
AcDbEntity
  8
0
  6
Continuous
 62
     7
370
    30
100
AcDbLine
 10
7.1588916471
 20
2.5772512426
 30
0.0
 11
7.1833915908
 21
2.5913963459
 31
0.0
  0
LINE
  5
A0
330
1F
100
AcDbEntity
  8
0
  6
Continuous
 62
     7
370
    30
100
AcDbLine
 10
6.9933915923
 20
2.5358408276
 30
0.0
 11
7.0178916093
 21
2.5216957244
 31
0.0
  0
LINE
  5
A1
330
1F
100
AcDbEntity
  8
0
  6
Continuous
 62
     7
370
    30
100
AcDbLine
 10
7.1588916471
 20
2.5216957244
 30
0.0
 11
7.1833915908
 21
2.5358408276
 31
0.0
  0
LINE
  5
A2
330
1F
100
AcDbEntity
  8
0
  6
Continuous
 62
     7
370
    30
100
AcDbLine
 10
6.9933915923
 20
4.3136185473
 30
0.0
 11
7.0178916093
 21
4.2994734807
 31
0.0
  0
LINE
  5
A3
330
1F
100
AcDbEntity
  8
0
  6
Continuous
 62
     7
370
    30
100
AcDbLine
 10
7.1588916471
 20
4.2994734807
 30
0.0
 11
7.1833915908
 21
4.3136185473
 31
0.0
  0
LINE
  5
A4
330
1F
100
AcDbEntity
  8
0
  6
Continuous
 62
     7
370
    30
100
AcDbLine
 10
6.9933915923
 20
3.646951852
 30
0.0
 11
7.0178916093
 21
3.6328068221
 31
0.0
  0
LINE
  5
A5
330
1F
100
AcDbEntity
  8
0
  6
Continuous
 62
     7
370
    30
100
AcDbLine
 10
7.1588916471
 20
3.6328068221
 30
0.0
 11
7.1833915908
 21
3.646951852
 31
0.0
  0
LINE
  5
A6
330
1F
100
AcDbEntity
  8
0
  6
Continuous
 62
     7
370
    30
100
AcDbLine
 10
6.9933915923
 20
4.1469518826
 30
0.0
 11
7.0178916093
 21
4.132806816
 31
0.0
  0
LINE
  5
A7
330
1F
100
AcDbEntity
  8
0
  6
Continuous
 62
     7
370
    30
100
AcDbLine
 10
7.1588916471
 20
4.132806816
 30
0.0
 11
7.1833915908
 21
4.1469518826
 31
0.0
  0
LINE
  5
A8
330
1F
100
AcDbEntity
  8
0
  6
Continuous
 62
     7
370
    30
100
AcDbLine
 10
7.1833915908
 20
4.1469518826
 30
0.0
 11
7.1588916471
 21
4.1610969859
 31
0.0
  0
LINE
  5
A9
330
1F
100
AcDbEntity
  8
0
  6
Continuous
 62
     7
370
    30
100
AcDbLine
 10
7.0178916093
 20
4.1610969859
 30
0.0
 11
6.9933915923
 21
4.1469518826
 31
0.0
  0
LINE
  5
AA
330
1F
100
AcDbEntity
  8
0
  6
Continuous
 62
     7
370
    30
100
AcDbLine
 10
7.1833915908
 20
4.2580629924
 30
0.0
 11
7.1588916471
 21
4.2722080956
 31
0.0
  0
LINE
  5
AB
330
1F
100
AcDbEntity
  8
0
  6
Continuous
 62
     7
370
    30
100
AcDbLine
 10
7.0178916093
 20
4.2722080956
 30
0.0
 11
6.9933915923
 21
4.2580629924
 31
0.0
  0
LINE
  5
AC
330
1F
100
AcDbEntity
  8
0
  6
Continuous
 62
     7
370
    30
100
AcDbLine
 10
6.9933915923
 20
2.7580630472
 30
0.0
 11
7.0178916093
 21
2.7439179439
 31
0.0
  0
LINE
  5
AD
330
1F
100
AcDbEntity
  8
0
  6
Continuous
 62
     7
370
    30
100
AcDbLine
 10
7.1588916471
 20
2.7439179439
 30
0.0
 11
7.1833915908
 21
2.7580630472
 31
0.0
  0
LINE
  5
AE
330
1F
100
AcDbEntity
  8
0
  6
Continuous
 62
     7
370
    30
100
AcDbLine
 10
6.9933915923
 20
4.2025074375
 30
0.0
 11
7.0178916093
 21
4.1883623709
 31
0.0
  0
LINE
  5
AF
330
1F
100
AcDbEntity
  8
0
  6
Continuous
 62
     7
370
    30
100
AcDbLine
 10
7.1588916471
 20
4.1883623709
 30
0.0
 11
7.1833915908
 21
4.2025074375
 31
0.0
  0
LINE
  5
B0
330
1F
100
AcDbEntity
  8
0
  6
Continuous
 62
     7
370
    30
100
AcDbLine
 10
6.9933915923
 20
4.6469518862
 30
0.0
 11
7.0178916093
 21
4.6328068043
 31
0.0
  0
LINE
  5
B1
330
1F
100
AcDbEntity
  8
0
  6
Continuous
 62
     7
370
    30
100
AcDbLine
 10
7.1588916471
 20
4.6328068043
 30
0.0
 11
7.1833915908
 21
4.6469518862
 31
0.0
  0
LINE
  5
B2
330
1F
100
AcDbEntity
  8
0
  6
Continuous
 62
     7
370
    30
100
AcDbLine
 10
6.9933915923
 20
3.5358407422
 30
0.0
 11
7.0178916093
 21
3.5216957123
 31
0.0
  0
LINE
  5
B3
330
1F
100
AcDbEntity
  8
0
  6
Continuous
 62
     7
370
    30
100
AcDbLine
 10
7.1588916471
 20
3.5216957123
 30
0.0
 11
7.1833915908
 21
3.5358407422
 31
0.0
  0
LINE
  5
B4
330
1F
100
AcDbEntity
  8
0
  6
Continuous
 62
     7
370
    30
100
AcDbLine
 10
7.1833915908
 20
4.2025074375
 30
0.0
 11
7.1588916471
 21
4.2166525408
 31
0.0
  0
LINE
  5
B5
330
1F
100
AcDbEntity
  8
0
  6
Continuous
 62
     7
370
    30
100
AcDbLine
 10
7.0178916093
 20
4.2166525408
 30
0.0
 11
6.9933915923
 21
4.2025074375
 31
0.0
  0
LINE
  5
B6
330
1F
100
AcDbEntity
  8
0
  6
Continuous
 62
     7
370
    30
100
AcDbLine
 10
6.9933915923
 20
4.5913963309
 30
0.0
 11
7.0178916093
 21
4.5772512505
 31
0.0
  0
LINE
  5
B7
330
1F
100
AcDbEntity
  8
0
  6
Continuous
 62
     7
370
    30
100
AcDbLine
 10
7.1588916471
 20
4.5772512505
 30
0.0
 11
7.1833915908
 21
4.5913963309
 31
0.0
  0
LINE
  5
B8
330
1F
100
AcDbEntity
  8
0
  6
Continuous
 62
     7
370
    30
100
AcDbLine
 10
7.1833915908
 20
4.6469518862
 30
0.0
 11
7.1588916471
 21
4.6610969672
 31
0.0
  0
LINE
  5
B9
330
1F
100
AcDbEntity
  8
0
  6
Continuous
 62
     7
370
    30
100
AcDbLine
 10
7.0178916093
 20
4.6610969672
 30
0.0
 11
6.9933915923
 21
4.6469518862
 31
0.0
  0
LINE
  5
BA
330
1F
100
AcDbEntity
  8
0
  6
Continuous
 62
     7
370
    30
100
AcDbLine
 10
7.1833915908
 20
4.5913963309
 30
0.0
 11
7.1588916471
 21
4.6055414112
 31
0.0
  0
LINE
  5
BB
330
1F
100
AcDbEntity
  8
0
  6
Continuous
 62
     7
370
    30
100
AcDbLine
 10
7.0178916093
 20
4.6055414112
 30
0.0
 11
6.9933915923
 21
4.5913963309
 31
0.0
  0
LINE
  5
BC
330
1F
100
AcDbEntity
  8
0
  6
Continuous
 62
     7
370
    30
100
AcDbLine
 10
7.1833915908
 20
3.5358407422
 30
0.0
 11
7.1588916471
 21
3.5499858455
 31
0.0
  0
LINE
  5
BD
330
1F
100
AcDbEntity
  8
0
  6
Continuous
 62
     7
370
    30
100
AcDbLine
 10
7.0178916093
 20
3.5499858455
 30
0.0
 11
6.9933915923
 21
3.5358407422
 31
0.0
  0
LINE
  5
BE
330
1F
100
AcDbEntity
  8
0
  6
Continuous
 62
     7
370
    30
100
AcDbLine
 10
6.9933915923
 20
3.480285224
 30
0.0
 11
7.0178916093
 21
3.4661401207
 31
0.0
  0
LINE
  5
BF
330
1F
100
AcDbEntity
  8
0
  6
Continuous
 62
     7
370
    30
100
AcDbLine
 10
7.1588916471
 20
3.4661401207
 30
0.0
 11
7.1833915908
 21
3.480285224
 31
0.0
  0
LINE
  5
C0
330
1F
100
AcDbEntity
  8
0
  6
Continuous
 62
     7
370
    30
100
AcDbLine
 10
7.1833915908
 20
3.480285224
 30
0.0
 11
7.1588916471
 21
3.4944303273
 31
0.0
  0
LINE
  5
C1
330
1F
100
AcDbEntity
  8
0
  6
Continuous
 62
     7
370
    30
100
AcDbLine
 10
7.0178916093
 20
3.4944303273
 30
0.0
 11
6.9933915923
 21
3.480285224
 31
0.0
  0
LINE
  5
C2
330
1F
100
AcDbEntity
  8
0
  6
Continuous
 62
     7
370
    30
100
AcDbLine
 10
7.1833915908
 20
4.0913963277
 30
0.0
 11
7.1588916471
 21
4.1055413943
 31
0.0
  0
LINE
  5
C3
330
1F
100
AcDbEntity
  8
0
  6
Continuous
 62
     7
370
    30
100
AcDbLine
 10
7.0178916093
 20
4.1055413943
 30
0.0
 11
6.9933915923
 21
4.0913963277
 31
0.0
  0
LINE
  5
C4
330
1F
100
AcDbEntity
  8
0
  6
Continuous
 62
     7
370
    30
100
AcDbLine
 10
6.9933915923
 20
4.0913963277
 30
0.0
 11
7.0178916093
 21
4.0772512611
 31
0.0
  0
LINE
  5
C5
330
1F
100
AcDbEntity
  8
0
  6
Continuous
 62
     7
370
    30
100
AcDbLine
 10
7.1588916471
 20
4.0772512611
 30
0.0
 11
7.1833915908
 21
4.0913963277
 31
0.0
  0
LINE
  5
C6
330
1F
100
AcDbEntity
  8
0
  6
Continuous
 62
     7
370
    30
100
AcDbLine
 10
6.9933915923
 20
4.0358407729
 30
0.0
 11
7.0178916093
 21
4.0216956696
 31
0.0
  0
LINE
  5
C7
330
1F
100
AcDbEntity
  8
0
  6
Continuous
 62
     7
370
    30
100
AcDbLine
 10
7.1588916471
 20
4.0216956696
 30
0.0
 11
7.1833915908
 21
4.0358407729
 31
0.0
  0
LINE
  5
C8
330
1F
100
AcDbEntity
  8
0
  6
Continuous
 62
     7
370
    30
100
AcDbLine
 10
7.1833915908
 20
4.0358407729
 30
0.0
 11
7.1588916471
 21
4.0499858394
 31
0.0
  0
LINE
  5
C9
330
1F
100
AcDbEntity
  8
0
  6
Continuous
 62
     7
370
    30
100
AcDbLine
 10
7.0178916093
 20
4.0499858394
 30
0.0
 11
6.9933915923
 21
4.0358407729
 31
0.0
  0
LINE
  5
CA
330
1F
100
AcDbEntity
  8
0
  6
Continuous
 62
     7
370
    30
100
AcDbLine
 10
7.1833915908
 20
3.7025074435
 30
0.0
 11
7.1588916471
 21
3.7166525468
 31
0.0
  0
LINE
  5
CB
330
1F
100
AcDbEntity
  8
0
  6
Continuous
 62
     7
370
    30
100
AcDbLine
 10
7.0178916093
 20
3.7166525468
 30
0.0
 11
6.9933915923
 21
3.7025074435
 31
0.0
  0
LINE
  5
CC
330
1F
100
AcDbEntity
  8
0
  6
Continuous
 62
     7
370
    30
100
AcDbLine
 10
7.1833915908
 20
3.8136185533
 30
0.0
 11
7.1588916471
 21
3.8277636566
 31
0.0
  0
LINE
  5
CD
330
1F
100
AcDbEntity
  8
0
  6
Continuous
 62
     7
370
    30
100
AcDbLine
 10
7.0178916093
 20
3.8277636566
 30
0.0
 11
6.9933915923
 21
3.8136185533
 31
0.0
  0
LINE
  5
CE
330
1F
100
AcDbEntity
  8
0
  6
Continuous
 62
     7
370
    30
100
AcDbLine
 10
7.1833915908
 20
4.424729657
 30
0.0
 11
7.1588916471
 21
4.438874742
 31
0.0
  0
LINE
  5
CF
330
1F
100
AcDbEntity
  8
0
  6
Continuous
 62
     7
370
    30
100
AcDbLine
 10
7.0178916093
 20
4.438874742
 30
0.0
 11
6.9933915923
 21
4.424729657
 31
0.0
  0
LINE
  5
D0
330
1F
100
AcDbEntity
  8
0
  6
Continuous
 62
     7
370
    30
100
AcDbLine
 10
6.9933915923
 20
3.8691741449
 30
0.0
 11
7.0178916093
 21
3.8550290416
 31
0.0
  0
LINE
  5
D1
330
1F
100
AcDbEntity
  8
0
  6
Continuous
 62
     7
370
    30
100
AcDbLine
 10
7.1588916471
 20
3.8550290416
 30
0.0
 11
7.1833915908
 21
3.8691741449
 31
0.0
  0
LINE
  5
D2
330
1F
100
AcDbEntity
  8
0
  6
Continuous
 62
     7
370
    30
100
AcDbLine
 10
7.1833915908
 20
3.9247296631
 30
0.0
 11
7.1588916471
 21
3.9388747663
 31
0.0
  0
LINE
  5
D3
330
1F
100
AcDbEntity
  8
0
  6
Continuous
 62
     7
370
    30
100
AcDbLine
 10
7.0178916093
 20
3.9388747663
 30
0.0
 11
6.9933915923
 21
3.9247296631
 31
0.0
  0
LINE
  5
D4
330
1F
100
AcDbEntity
  8
0
  6
Continuous
 62
     7
370
    30
100
AcDbLine
 10
6.9933915923
 20
4.4802852119
 30
0.0
 11
7.0178916093
 21
4.4661401453
 31
0.0
  0
LINE
  5
D5
330
1F
100
AcDbEntity
  8
0
  6
Continuous
 62
     7
370
    30
100
AcDbLine
 10
7.1588916471
 20
4.4661401453
 30
0.0
 11
7.1833915908
 21
4.4802852119
 31
0.0
  0
LINE
  5
D6
330
1F
100
AcDbEntity
  8
0
  6
Continuous
 62
     7
370
    30
100
AcDbLine
 10
6.9933915923
 20
4.424729657
 30
0.0
 11
7.0178916093
 21
4.4105845904
 31
0.0
  0
LINE
  5
D7
330
1F
100
AcDbEntity
  8
0
  6
Continuous
 62
     7
370
    30
100
AcDbLine
 10
7.1588916471
 20
4.4105845904
 30
0.0
 11
7.1833915908
 21
4.424729657
 31
0.0
  0
LINE
  5
D8
330
1F
100
AcDbEntity
  8
0
  6
Continuous
 62
     7
370
    30
100
AcDbLine
 10
6.9933915923
 20
4.535840776
 30
0.0
 11
7.0178916093
 21
4.521695691
 31
0.0
  0
LINE
  5
D9
330
1F
100
AcDbEntity
  8
0
  6
Continuous
 62
     7
370
    30
100
AcDbLine
 10
7.1588916471
 20
4.521695691
 30
0.0
 11
7.1833915908
 21
4.535840776
 31
0.0
  0
LINE
  5
DA
330
1F
100
AcDbEntity
  8
0
  6
Continuous
 62
     7
370
    30
100
AcDbLine
 10
7.1833915908
 20
4.4802852119
 30
0.0
 11
7.1588916471
 21
4.4944302969
 31
0.0
  0
LINE
  5
DB
330
1F
100
AcDbEntity
  8
0
  6
Continuous
 62
     7
370
    30
100
AcDbLine
 10
7.0178916093
 20
4.4944302969
 30
0.0
 11
6.9933915923
 21
4.4802852119
 31
0.0
  0
LINE
  5
DC
330
1F
100
AcDbEntity
  8
0
  6
Continuous
 62
     7
370
    30
100
AcDbLine
 10
6.9933915923
 20
3.7025074435
 30
0.0
 11
7.0178916093
 21
3.6883623403
 31
0.0
  0
LINE
  5
DD
330
1F
100
AcDbEntity
  8
0
  6
Continuous
 62
     7
370
    30
100
AcDbLine
 10
7.1588916471
 20
3.6883623403
 30
0.0
 11
7.1833915908
 21
3.7025074435
 31
0.0
  0
LINE
  5
DE
330
1F
100
AcDbEntity
  8
0
  6
Continuous
 62
     7
370
    30
100
AcDbLine
 10
6.9933915923
 20
4.3691741022
 30
0.0
 11
7.0178916093
 21
4.3550290356
 31
0.0
  0
LINE
  5
DF
330
1F
100
AcDbEntity
  8
0
  6
Continuous
 62
     7
370
    30
100
AcDbLine
 10
7.1588916471
 20
4.3550290356
 30
0.0
 11
7.1833915908
 21
4.3691741022
 31
0.0
  0
LINE
  5
E0
330
1F
100
AcDbEntity
  8
0
  6
Continuous
 62
     7
370
    30
100
AcDbLine
 10
7.1833915908
 20
4.535840776
 30
0.0
 11
7.1588916471
 21
4.5499858609
 31
0.0
  0
LINE
  5
E1
330
1F
100
AcDbEntity
  8
0
  6
Continuous
 62
     7
370
    30
100
AcDbLine
 10
7.0178916093
 20
4.5499858609
 30
0.0
 11
6.9933915923
 21
4.535840776
 31
0.0
  0
LINE
  5
E2
330
1F
100
AcDbEntity
  8
0
  6
Continuous
 62
     7
370
    30
100
AcDbLine
 10
6.9933915923
 20
3.9247296631
 30
0.0
 11
7.0178916093
 21
3.9105845598
 31
0.0
  0
LINE
  5
E3
330
1F
100
AcDbEntity
  8
0
  6
Continuous
 62
     7
370
    30
100
AcDbLine
 10
7.1588916471
 20
3.9105845598
 30
0.0
 11
7.1833915908
 21
3.9247296631
 31
0.0
  0
LINE
  5
E4
330
1F
100
AcDbEntity
  8
0
  6
Continuous
 62
     7
370
    30
100
AcDbLine
 10
7.1833915908
 20
3.8691741449
 30
0.0
 11
7.1588916471
 21
3.8833191748
 31
0.0
  0
LINE
  5
E5
330
1F
100
AcDbEntity
  8
0
  6
Continuous
 62
     7
370
    30
100
AcDbLine
 10
7.0178916093
 20
3.8833191748
 30
0.0
 11
6.9933915923
 21
3.8691741449
 31
0.0
  0
LINE
  5
E6
330
1F
100
AcDbEntity
  8
0
  6
Continuous
 62
     7
370
    30
100
AcDbLine
 10
7.1833915908
 20
3.7580629618
 30
0.0
 11
7.1588916471
 21
3.772208065
 31
0.0
  0
LINE
  5
E7
330
1F
100
AcDbEntity
  8
0
  6
Continuous
 62
     7
370
    30
100
AcDbLine
 10
7.0178916093
 20
3.772208065
 30
0.0
 11
6.9933915923
 21
3.7580629618
 31
0.0
  0
LINE
  5
E8
330
1F
100
AcDbEntity
  8
0
  6
Continuous
 62
     7
370
    30
100
AcDbLine
 10
6.9933915923
 20
3.8136185533
 30
0.0
 11
7.0178916093
 21
3.7994734501
 31
0.0
  0
LINE
  5
E9
330
1F
100
AcDbEntity
  8
0
  6
Continuous
 62
     7
370
    30
100
AcDbLine
 10
7.1588916471
 20
3.7994734501
 30
0.0
 11
7.1833915908
 21
3.8136185533
 31
0.0
  0
LINE
  5
EA
330
1F
100
AcDbEntity
  8
0
  6
Continuous
 62
     7
370
    30
100
AcDbLine
 10
6.9933915923
 20
3.7580629618
 30
0.0
 11
7.0178916093
 21
3.7439179318
 31
0.0
  0
LINE
  5
EB
330
1F
100
AcDbEntity
  8
0
  6
Continuous
 62
     7
370
    30
100
AcDbLine
 10
7.1588916471
 20
3.7439179318
 30
0.0
 11
7.1833915908
 21
3.7580629618
 31
0.0
  0
LINE
  5
EC
330
1F
100
AcDbEntity
  8
0
  6
Continuous
 62
     7
370
    30
100
AcDbLine
 10
6.9933915923
 20
3.9802852546
 30
0.0
 11
7.0178916093
 21
3.9661401514
 31
0.0
  0
LINE
  5
ED
330
1F
100
AcDbEntity
  8
0
  6
Continuous
 62
     7
370
    30
100
AcDbLine
 10
7.1588916471
 20
3.9661401514
 30
0.0
 11
7.1833915908
 21
3.9802852546
 31
0.0
  0
LINE
  5
EE
330
1F
100
AcDbEntity
  8
0
  6
Continuous
 62
     7
370
    30
100
AcDbLine
 10
7.1833915908
 20
3.9802852546
 30
0.0
 11
7.1588916471
 21
3.9944302846
 31
0.0
  0
LINE
  5
EF
330
1F
100
AcDbEntity
  8
0
  6
Continuous
 62
     7
370
    30
100
AcDbLine
 10
7.0178916093
 20
3.9944302846
 30
0.0
 11
6.9933915923
 21
3.9802852546
 31
0.0
  0
LINE
  5
F0
330
1F
100
AcDbEntity
  8
0
  6
Continuous
 62
     7
370
    30
100
AcDbLine
 10
7.1833915908
 20
4.3691741022
 30
0.0
 11
7.1588916471
 21
4.3833191871
 31
0.0
  0
LINE
  5
F1
330
1F
100
AcDbEntity
  8
0
  6
Continuous
 62
     7
370
    30
100
AcDbLine
 10
7.0178916093
 20
4.3833191871
 30
0.0
 11
6.9933915923
 21
4.3691741022
 31
0.0
  0
LINE
  5
F2
330
1F
100
AcDbEntity
  8
0
  6
Continuous
 62
     7
370
    30
100
AcDbLine
 10
7.0178916093
 20
3.4661401207
 30
0.0
 11
7.0178916093
 21
3.4388747357
 31
0.0
  0
LINE
  5
F3
330
1F
100
AcDbEntity
  8
0
  6
Continuous
 62
     7
370
    30
100
AcDbLine
 10
7.1588916471
 20
3.4388747357
 30
0.0
 11
7.1588916471
 21
3.4661401207
 31
0.0
  0
LINE
  5
F4
330
1F
100
AcDbEntity
  8
0
  6
Continuous
 62
     7
370
    30
100
AcDbLine
 10
7.0178916093
 20
2.4838206686
 30
0.0
 11
7.0883915549
 21
2.3136186081
 31
0.0
  0
LINE
  5
F5
330
1F
100
AcDbEntity
  8
0
  6
Continuous
 62
     7
370
    30
100
AcDbLine
 10
7.0883915549
 20
2.3136186081
 30
0.0
 11
7.1588916471
 21
2.4838206686
 31
0.0
  0
LINE
  5
F6
330
1F
100
AcDbEntity
  8
0
  6
Continuous
 62
     7
370
    30
100
AcDbLine
 10
7.0178916093
 20
2.5216957244
 30
0.0
 11
7.0178916093
 21
2.4838206686
 31
0.0
  0
LINE
  5
F7
330
1F
100
AcDbEntity
  8
0
  6
Continuous
 62
     7
370
    30
100
AcDbLine
 10
7.1588916471
 20
2.4838206686
 30
0.0
 11
7.1588916471
 21
2.5216957244
 31
0.0
  0
LINE
  5
F8
330
1F
100
AcDbEntity
  8
0
  6
Continuous
 62
     7
370
    30
100
AcDbLine
 10
7.0178916093
 20
3.6328068221
 30
0.0
 11
7.0178916093
 21
3.605541437
 31
0.0
  0
LINE
  5
F9
330
1F
100
AcDbEntity
  8
0
  6
Continuous
 62
     7
370
    30
100
AcDbLine
 10
7.1588916471
 20
3.605541437
 30
0.0
 11
7.1588916471
 21
3.6328068221
 31
0.0
  0
LINE
  5
FA
330
1F
100
AcDbEntity
  8
0
  6
Continuous
 62
     7
370
    30
100
AcDbLine
 10
7.0178916093
 20
3.5772512305
 30
0.0
 11
7.0178916093
 21
3.5499858455
 31
0.0
  0
LINE
  5
FB
330
1F
100
AcDbEntity
  8
0
  6
Continuous
 62
     7
370
    30
100
AcDbLine
 10
7.1588916471
 20
3.5499858455
 30
0.0
 11
7.1588916471
 21
3.5772512305
 31
0.0
  0
LINE
  5
FC
330
1F
100
AcDbEntity
  8
0
  6
Continuous
 62
     7
370
    30
100
AcDbLine
 10
7.0178916093
 20
3.4105846025
 30
0.0
 11
7.0178916093
 21
3.3833191442
 31
0.0
  0
LINE
  5
FD
330
1F
100
AcDbEntity
  8
0
  6
Continuous
 62
     7
370
    30
100
AcDbLine
 10
7.1588916471
 20
3.3833191442
 30
0.0
 11
7.1588916471
 21
3.4105846025
 31
0.0
  0
LINE
  5
FE
330
1F
100
AcDbEntity
  8
0
  6
Continuous
 62
     7
370
    30
100
AcDbLine
 10
7.0178916093
 20
2.6328067608
 30
0.0
 11
7.0178916093
 21
2.6055414491
 31
0.0
  0
LINE
  5
FF
330
1F
100
AcDbEntity
  8
0
  6
Continuous
 62
     7
370
    30
100
AcDbLine
 10
7.1588916471
 20
2.6055414491
 30
0.0
 11
7.1588916471
 21
2.6328067608
 31
0.0
  0
LINE
  5
100
330
1F
100
AcDbEntity
  8
0
  6
Continuous
 62
     7
370
    30
100
AcDbLine
 10
7.0178916093
 20
4.6883623603
 30
0.0
 11
7.0178916093
 21
4.6610969672
 31
0.0
  0
LINE
  5
101
330
1F
100
AcDbEntity
  8
0
  6
Continuous
 62
     7
370
    30
100
AcDbLine
 10
7.1588916471
 20
4.6610969672
 30
0.0
 11
7.1588916471
 21
4.6883623603
 31
0.0
  0
LINE
  5
102
330
1F
100
AcDbEntity
  8
0
  6
Continuous
 62
     7
370
    30
100
AcDbLine
 10
7.0178916093
 20
2.5772512426
 30
0.0
 11
7.0178916093
 21
2.5499857842
 31
0.0
  0
LINE
  5
103
330
1F
100
AcDbEntity
  8
0
  6
Continuous
 62
     7
370
    30
100
AcDbLine
 10
7.1588916471
 20
2.5499857842
 30
0.0
 11
7.1588916471
 21
2.5772512426
 31
0.0
  0
LINE
  5
104
330
1F
100
AcDbEntity
  8
0
  6
Continuous
 62
     7
370
    30
100
AcDbLine
 10
7.0178916093
 20
2.6883624257
 30
0.0
 11
7.0178916093
 21
2.6610969673
 31
0.0
  0
LINE
  5
105
330
1F
100
AcDbEntity
  8
0
  6
Continuous
 62
     7
370
    30
100
AcDbLine
 10
7.1588916471
 20
2.6610969673
 30
0.0
 11
7.1588916471
 21
2.6883624257
 31
0.0
  0
LINE
  5
106
330
1F
100
AcDbEntity
  8
0
  6
Continuous
 62
     7
370
    30
100
AcDbLine
 10
7.0178916093
 20
2.7439179439
 30
0.0
 11
7.0178916093
 21
2.7166524856
 31
0.0
  0
LINE
  5
107
330
1F
100
AcDbEntity
  8
0
  6
Continuous
 62
     7
370
    30
100
AcDbLine
 10
7.1588916471
 20
2.7166524856
 30
0.0
 11
7.1588916471
 21
2.7439179439
 31
0.0
  0
LINE
  5
108
330
1F
100
AcDbEntity
  8
0
  6
Continuous
 62
     7
370
    30
100
AcDbLine
 10
7.0178916093
 20
3.3550290843
 30
0.0
 11
7.0178916093
 21
3.327763626
 31
0.0
  0
LINE
  5
109
330
1F
100
AcDbEntity
  8
0
  6
Continuous
 62
     7
370
    30
100
AcDbLine
 10
7.1588916471
 20
3.327763626
 30
0.0
 11
7.1588916471
 21
3.3550290843
 31
0.0
  0
LINE
  5
10A
330
1F
100
AcDbEntity
  8
0
  6
Continuous
 62
     7
370
    30
100
AcDbLine
 10
7.0178916093
 20
3.2994734194
 30
0.0
 11
7.0178916093
 21
3.2722081077
 31
0.0
  0
LINE
  5
10B
330
1F
100
AcDbEntity
  8
0
  6
Continuous
 62
     7
370
    30
100
AcDbLine
 10
7.1588916471
 20
3.2722081077
 30
0.0
 11
7.1588916471
 21
3.2994734194
 31
0.0
  0
LINE
  5
10C
330
1F
100
AcDbEntity
  8
0
  6
Continuous
 62
     7
370
    30
100
AcDbLine
 10
7.0178916093
 20
4.5772512505
 30
0.0
 11
7.0178916093
 21
4.5499858609
 31
0.0
  0
LINE
  5
10D
330
1F
100
AcDbEntity
  8
0
  6
Continuous
 62
     7
370
    30
100
AcDbLine
 10
7.1588916471
 20
4.5499858609
 30
0.0
 11
7.1588916471
 21
4.5772512505
 31
0.0
  0
LINE
  5
10E
330
1F
100
AcDbEntity
  8
0
  6
Continuous
 62
     7
370
    30
100
AcDbLine
 10
7.0178916093
 20
4.2439179258
 30
0.0
 11
7.0178916093
 21
4.2166525408
 31
0.0
  0
LINE
  5
10F
330
1F
100
AcDbEntity
  8
0
  6
Continuous
 62
     7
370
    30
100
AcDbLine
 10
7.1588916471
 20
4.2166525408
 30
0.0
 11
7.1588916471
 21
4.2439179258
 31
0.0
  0
LINE
  5
110
330
1F
100
AcDbEntity
  8
0
  6
Continuous
 62
     7
370
    30
100
AcDbLine
 10
7.0178916093
 20
4.2994734807
 30
0.0
 11
7.0178916093
 21
4.2722080956
 31
0.0
  0
LINE
  5
111
330
1F
100
AcDbEntity
  8
0
  6
Continuous
 62
     7
370
    30
100
AcDbLine
 10
7.1588916471
 20
4.2722080956
 30
0.0
 11
7.1588916471
 21
4.2994734807
 31
0.0
  0
LINE
  5
112
330
1F
100
AcDbEntity
  8
0
  6
Continuous
 62
     7
370
    30
100
AcDbLine
 10
7.0178916093
 20
3.2439179012
 30
0.0
 11
7.0178916093
 21
3.2166525895
 31
0.0
  0
LINE
  5
113
330
1F
100
AcDbEntity
  8
0
  6
Continuous
 62
     7
370
    30
100
AcDbLine
 10
7.1588916471
 20
3.2166525895
 30
0.0
 11
7.1588916471
 21
3.2439179012
 31
0.0
  0
LINE
  5
114
330
1F
100
AcDbEntity
  8
0
  6
Continuous
 62
     7
370
    30
100
AcDbLine
 10
7.0178916093
 20
4.132806816
 30
0.0
 11
7.0178916093
 21
4.1055413943
 31
0.0
  0
LINE
  5
115
330
1F
100
AcDbEntity
  8
0
  6
Continuous
 62
     7
370
    30
100
AcDbLine
 10
7.1588916471
 20
4.1055413943
 30
0.0
 11
7.1588916471
 21
4.132806816
 31
0.0
  0
LINE
  5
116
330
1F
100
AcDbEntity
  8
0
  6
Continuous
 62
     7
370
    30
100
AcDbLine
 10
7.0178916093
 20
4.3550290356
 30
0.0
 11
7.0178916093
 21
4.3277636505
 31
0.0
  0
LINE
  5
117
330
1F
100
AcDbEntity
  8
0
  6
Continuous
 62
     7
370
    30
100
AcDbLine
 10
7.1588916471
 20
4.3277636505
 30
0.0
 11
7.1588916471
 21
4.3550290356
 31
0.0
  0
LINE
  5
118
330
1F
100
AcDbEntity
  8
0
  6
Continuous
 62
     7
370
    30
100
AcDbLine
 10
7.0178916093
 20
4.6328068043
 30
0.0
 11
7.0178916093
 21
4.6055414112
 31
0.0
  0
LINE
  5
119
330
1F
100
AcDbEntity
  8
0
  6
Continuous
 62
     7
370
    30
100
AcDbLine
 10
7.1588916471
 20
4.6055414112
 30
0.0
 11
7.1588916471
 21
4.6328068043
 31
0.0
  0
LINE
  5
11A
330
1F
100
AcDbEntity
  8
0
  6
Continuous
 62
     7
370
    30
100
AcDbLine
 10
7.0178916093
 20
4.0772512611
 30
0.0
 11
7.0178916093
 21
4.0499858394
 31
0.0
  0
LINE
  5
11B
330
1F
100
AcDbEntity
  8
0
  6
Continuous
 62
     7
370
    30
100
AcDbLine
 10
7.1588916471
 20
4.0499858394
 30
0.0
 11
7.1588916471
 21
4.0772512611
 31
0.0
  0
LINE
  5
11C
330
1F
100
AcDbEntity
  8
0
  6
Continuous
 62
     7
370
    30
100
AcDbLine
 10
7.0178916093
 20
4.0216956696
 30
0.0
 11
7.0178916093
 21
3.9944302846
 31
0.0
  0
LINE
  5
11D
330
1F
100
AcDbEntity
  8
0
  6
Continuous
 62
     7
370
    30
100
AcDbLine
 10
7.1588916471
 20
3.9944302846
 30
0.0
 11
7.1588916471
 21
4.0216956696
 31
0.0
  0
LINE
  5
11E
330
1F
100
AcDbEntity
  8
0
  6
Continuous
 62
     7
370
    30
100
AcDbLine
 10
7.0178916093
 20
4.1883623709
 30
0.0
 11
7.0178916093
 21
4.1610969859
 31
0.0
  0
LINE
  5
11F
330
1F
100
AcDbEntity
  8
0
  6
Continuous
 62
     7
370
    30
100
AcDbLine
 10
7.1588916471
 20
4.1610969859
 30
0.0
 11
7.1588916471
 21
4.1883623709
 31
0.0
  0
LINE
  5
120
330
1F
100
AcDbEntity
  8
0
  6
Continuous
 62
     7
370
    30
100
AcDbLine
 10
7.0178916093
 20
3.5216957123
 30
0.0
 11
7.0178916093
 21
3.4944303273
 31
0.0
  0
LINE
  5
121
330
1F
100
AcDbEntity
  8
0
  6
Continuous
 62
     7
370
    30
100
AcDbLine
 10
7.1588916471
 20
3.4944303273
 30
0.0
 11
7.1588916471
 21
3.5216957123
 31
0.0
  0
LINE
  5
122
330
1F
100
AcDbEntity
  8
0
  6
Continuous
 62
     7
370
    30
100
AcDbLine
 10
7.0178916093
 20
3.6883623403
 30
0.0
 11
7.0178916093
 21
3.6610969553
 31
0.0
  0
LINE
  5
123
330
1F
100
AcDbEntity
  8
0
  6
Continuous
 62
     7
370
    30
100
AcDbLine
 10
7.1588916471
 20
3.6610969553
 30
0.0
 11
7.1588916471
 21
3.6883623403
 31
0.0
  0
LINE
  5
124
330
1F
100
AcDbEntity
  8
0
  6
Continuous
 62
     7
370
    30
100
AcDbLine
 10
7.0178916093
 20
3.8550290416
 30
0.0
 11
7.0178916093
 21
3.8277636566
 31
0.0
  0
LINE
  5
125
330
1F
100
AcDbEntity
  8
0
  6
Continuous
 62
     7
370
    30
100
AcDbLine
 10
7.1588916471
 20
3.8277636566
 30
0.0
 11
7.1588916471
 21
3.8550290416
 31
0.0
  0
LINE
  5
126
330
1F
100
AcDbEntity
  8
0
  6
Continuous
 62
     7
370
    30
100
AcDbLine
 10
7.0178916093
 20
3.9105845598
 30
0.0
 11
7.0178916093
 21
3.8833191748
 31
0.0
  0
LINE
  5
127
330
1F
100
AcDbEntity
  8
0
  6
Continuous
 62
     7
370
    30
100
AcDbLine
 10
7.1588916471
 20
3.8833191748
 30
0.0
 11
7.1588916471
 21
3.9105845598
 31
0.0
  0
LINE
  5
128
330
1F
100
AcDbEntity
  8
0
  6
Continuous
 62
     7
370
    30
100
AcDbLine
 10
7.0178916093
 20
3.9661401514
 30
0.0
 11
7.0178916093
 21
3.9388747663
 31
0.0
  0
LINE
  5
129
330
1F
100
AcDbEntity
  8
0
  6
Continuous
 62
     7
370
    30
100
AcDbLine
 10
7.1588916471
 20
3.9388747663
 30
0.0
 11
7.1588916471
 21
3.9661401514
 31
0.0
  0
LINE
  5
12A
330
1F
100
AcDbEntity
  8
0
  6
Continuous
 62
     7
370
    30
100
AcDbLine
 10
7.0178916093
 20
3.7994734501
 30
0.0
 11
7.0178916093
 21
3.772208065
 31
0.0
  0
LINE
  5
12B
330
1F
100
AcDbEntity
  8
0
  6
Continuous
 62
     7
370
    30
100
AcDbLine
 10
7.1588916471
 20
3.772208065
 30
0.0
 11
7.1588916471
 21
3.7994734501
 31
0.0
  0
LINE
  5
12C
330
1F
100
AcDbEntity
  8
0
  6
Continuous
 62
     7
370
    30
100
AcDbLine
 10
7.0178916093
 20
3.7439179318
 30
0.0
 11
7.0178916093
 21
3.7166525468
 31
0.0
  0
LINE
  5
12D
330
1F
100
AcDbEntity
  8
0
  6
Continuous
 62
     7
370
    30
100
AcDbLine
 10
7.1588916471
 20
3.7166525468
 30
0.0
 11
7.1588916471
 21
3.7439179318
 31
0.0
  0
LINE
  5
12E
330
1F
100
AcDbEntity
  8
0
  6
Continuous
 62
     7
370
    30
100
AcDbLine
 10
7.0178916093
 20
4.4105845904
 30
0.0
 11
7.0178916093
 21
4.3833191871
 31
0.0
  0
LINE
  5
12F
330
1F
100
AcDbEntity
  8
0
  6
Continuous
 62
     7
370
    30
100
AcDbLine
 10
7.1588916471
 20
4.3833191871
 30
0.0
 11
7.1588916471
 21
4.4105845904
 31
0.0
  0
LINE
  5
130
330
1F
100
AcDbEntity
  8
0
  6
Continuous
 62
     7
370
    30
100
AcDbLine
 10
7.0178916093
 20
4.4661401453
 30
0.0
 11
7.0178916093
 21
4.438874742
 31
0.0
  0
LINE
  5
131
330
1F
100
AcDbEntity
  8
0
  6
Continuous
 62
     7
370
    30
100
AcDbLine
 10
7.1588916471
 20
4.438874742
 30
0.0
 11
7.1588916471
 21
4.4661401453
 31
0.0
  0
LINE
  5
132
330
1F
100
AcDbEntity
  8
0
  6
Continuous
 62
     7
370
    30
100
AcDbLine
 10
7.0178916093
 20
4.521695691
 30
0.0
 11
7.0178916093
 21
4.4944302969
 31
0.0
  0
LINE
  5
133
330
1F
100
AcDbEntity
  8
0
  6
Continuous
 62
     7
370
    30
100
AcDbLine
 10
7.1588916471
 20
4.4944302969
 30
0.0
 11
7.1588916471
 21
4.521695691
 31
0.0
  0
LINE
  5
134
330
1F
100
AcDbEntity
  8
0
  6
Continuous
 62
     7
370
    30
100
AcDbLine
 10
4.4308916279
 20
4.7025074406
 30
0.0
 11
4.4553915715
 21
4.6883623603
 31
0.0
  0
LINE
  5
135
330
1F
100
AcDbEntity
  8
0
  6
Continuous
 62
     7
370
    30
100
AcDbLine
 10
4.5963916093
 20
4.6883623603
 30
0.0
 11
4.6208916263
 21
4.7025074406
 31
0.0
  0
LINE
  5
136
330
1F
100
AcDbEntity
  8
0
  6
Continuous
 62
     7
370
    30
100
AcDbLine
 10
4.6208916263
 20
2.7580630472
 30
0.0
 11
4.5986203303
 21
2.770921312
 31
0.0
  0
LINE
  5
137
330
1F
100
AcDbEntity
  8
0
  6
Continuous
 62
     7
370
    30
100
AcDbLine
 10
4.4531628506
 20
2.770921312
 30
0.0
 11
4.4308916279
 21
2.7580630472
 31
0.0
  0
LINE
  5
138
330
1F
100
AcDbEntity
  8
0
  6
Continuous
 62
     7
370
    30
100
AcDbLine
 10
4.4308916279
 20
2.5358408276
 30
0.0
 11
4.4553915715
 21
2.5216957244
 31
0.0
  0
LINE
  5
139
330
1F
100
AcDbEntity
  8
0
  6
Continuous
 62
     7
370
    30
100
AcDbLine
 10
4.5963916093
 20
2.5216957244
 30
0.0
 11
4.6208916263
 21
2.5358408276
 31
0.0
  0
LINE
  5
13A
330
1F
100
AcDbEntity
  8
0
  6
Continuous
 62
     7
370
    30
100
AcDbLine
 10
4.4308916279
 20
3.3691740409
 30
0.0
 11
4.4553915715
 21
3.3550290843
 31
0.0
  0
LINE
  5
13B
330
1F
100
AcDbEntity
  8
0
  6
Continuous
 62
     7
370
    30
100
AcDbLine
 10
4.5963916093
 20
3.3550290843
 30
0.0
 11
4.6208916263
 21
3.3691740409
 31
0.0
  0
LINE
  5
13C
330
1F
100
AcDbEntity
  8
0
  6
Continuous
 62
     7
370
    30
100
AcDbLine
 10
4.6208916263
 20
3.646951852
 30
0.0
 11
4.5963916093
 21
3.6610969553
 31
0.0
  0
LINE
  5
13D
330
1F
100
AcDbEntity
  8
0
  6
Continuous
 62
     7
370
    30
100
AcDbLine
 10
4.4553915715
 20
3.6610969553
 30
0.0
 11
4.4308916279
 21
3.646951852
 31
0.0
  0
LINE
  5
13E
330
1F
100
AcDbEntity
  8
0
  6
Continuous
 62
     7
370
    30
100
AcDbLine
 10
4.6184426879
 20
3.2039213366
 30
0.0
 11
4.5963916093
 21
3.2166525895
 31
0.0
  0
LINE
  5
13F
330
1F
100
AcDbEntity
  8
0
  6
Continuous
 62
     7
370
    30
100
AcDbLine
 10
4.4553915715
 20
3.2166525895
 30
0.0
 11
4.4333404929
 21
3.2039213366
 31
0.0
  0
LINE
  5
140
330
1F
100
AcDbEntity
  8
0
  6
Continuous
 62
     7
370
    30
100
AcDbLine
 10
4.6208916263
 20
4.7025074406
 30
0.0
 11
4.6046776669
 21
4.7118685525
 31
0.0
  0
LINE
  5
141
330
1F
100
AcDbEntity
  8
0
  6
Continuous
 62
     7
370
    30
100
AcDbLine
 10
4.4471055872
 20
4.7118685525
 30
0.0
 11
4.4308916279
 21
4.7025074406
 31
0.0
  0
LINE
  5
142
330
1F
100
AcDbEntity
  8
0
  6
Continuous
 62
     7
370
    30
100
AcDbLine
 10
4.6208916263
 20
3.3691740409
 30
0.0
 11
4.5963916093
 21
3.3833191442
 31
0.0
  0
LINE
  5
143
330
1F
100
AcDbEntity
  8
0
  6
Continuous
 62
     7
370
    30
100
AcDbLine
 10
4.4553915715
 20
3.3833191442
 30
0.0
 11
4.4308916279
 21
3.3691740409
 31
0.0
  0
LINE
  5
144
330
1F
100
AcDbEntity
  8
0
  6
Continuous
 62
     7
370
    30
100
AcDbLine
 10
4.4308916279
 20
2.7580630472
 30
0.0
 11
4.4553915715
 21
2.7439179439
 31
0.0
  0
LINE
  5
145
330
1F
100
AcDbEntity
  8
0
  6
Continuous
 62
     7
370
    30
100
AcDbLine
 10
4.5963916093
 20
2.7439179439
 30
0.0
 11
4.6208916263
 21
2.7580630472
 31
0.0
  0
LINE
  5
146
330
1F
100
AcDbEntity
  8
0
  6
Continuous
 62
     7
370
    30
100
AcDbLine
 10
4.4308916279
 20
3.646951852
 30
0.0
 11
4.4553915715
 21
3.6328068221
 31
0.0
  0
LINE
  5
147
330
1F
100
AcDbEntity
  8
0
  6
Continuous
 62
     7
370
    30
100
AcDbLine
 10
4.5963916093
 20
3.6328068221
 30
0.0
 11
4.6208916263
 21
3.646951852
 31
0.0
  0
LINE
  5
148
330
1F
100
AcDbEntity
  8
0
  6
Continuous
 62
     7
370
    30
100
AcDbLine
 10
4.4308916279
 20
2.6469518641
 30
0.0
 11
4.4553915715
 21
2.6328067608
 31
0.0
  0
LINE
  5
149
330
1F
100
AcDbEntity
  8
0
  6
Continuous
 62
     7
370
    30
100
AcDbLine
 10
4.5963916093
 20
2.6328067608
 30
0.0
 11
4.6208916263
 21
2.6469518641
 31
0.0
  0
LINE
  5
14A
330
1F
100
AcDbEntity
  8
0
  6
Continuous
 62
     7
370
    30
100
AcDbLine
 10
4.4308916279
 20
2.5913963459
 30
0.0
 11
4.4553915715
 21
2.5772512426
 31
0.0
  0
LINE
  5
14B
330
1F
100
AcDbEntity
  8
0
  6
Continuous
 62
     7
370
    30
100
AcDbLine
 10
4.5963916093
 20
2.5772512426
 30
0.0
 11
4.6208916263
 21
2.5913963459
 31
0.0
  0
LINE
  5
14C
330
1F
100
AcDbEntity
  8
0
  6
Continuous
 62
     7
370
    30
100
AcDbLine
 10
4.4308916279
 20
3.5913963338
 30
0.0
 11
4.4553915715
 21
3.5772512305
 31
0.0
  0
LINE
  5
14D
330
1F
100
AcDbEntity
  8
0
  6
Continuous
 62
     7
370
    30
100
AcDbLine
 10
4.5963916093
 20
3.5772512305
 30
0.0
 11
4.6208916263
 21
3.5913963338
 31
0.0
  0
LINE
  5
14E
330
1F
100
AcDbEntity
  8
0
  6
Continuous
 62
     7
370
    30
100
AcDbLine
 10
4.6208916263
 20
3.4247296325
 30
0.0
 11
4.5963916093
 21
3.4388747357
 31
0.0
  0
LINE
  5
14F
330
1F
100
AcDbEntity
  8
0
  6
Continuous
 62
     7
370
    30
100
AcDbLine
 10
4.4553915715
 20
3.4388747357
 30
0.0
 11
4.4308916279
 21
3.4247296325
 31
0.0
  0
LINE
  5
150
330
1F
100
AcDbEntity
  8
0
  6
Continuous
 62
     7
370
    30
100
AcDbLine
 10
4.4308916279
 20
3.4247296325
 30
0.0
 11
4.4553915715
 21
3.4105846025
 31
0.0
  0
LINE
  5
151
330
1F
100
AcDbEntity
  8
0
  6
Continuous
 62
     7
370
    30
100
AcDbLine
 10
4.5963916093
 20
3.4105846025
 30
0.0
 11
4.6208916263
 21
3.4247296325
 31
0.0
  0
LINE
  5
152
330
1F
100
AcDbEntity
  8
0
  6
Continuous
 62
     7
370
    30
100
AcDbLine
 10
4.6208916263
 20
4.3136185473
 30
0.0
 11
4.5963916093
 21
4.3277636505
 31
0.0
  0
LINE
  5
153
330
1F
100
AcDbEntity
  8
0
  6
Continuous
 62
     7
370
    30
100
AcDbLine
 10
4.4553915715
 20
4.3277636505
 30
0.0
 11
4.4308916279
 21
4.3136185473
 31
0.0
  0
LINE
  5
154
330
1F
100
AcDbEntity
  8
0
  6
Continuous
 62
     7
370
    30
100
AcDbLine
 10
4.6208916263
 20
3.5913963338
 30
0.0
 11
4.5963916093
 21
3.605541437
 31
0.0
  0
LINE
  5
155
330
1F
100
AcDbEntity
  8
0
  6
Continuous
 62
     7
370
    30
100
AcDbLine
 10
4.4553915715
 20
3.605541437
 30
0.0
 11
4.4308916279
 21
3.5913963338
 31
0.0
  0
LINE
  5
156
330
1F
100
AcDbEntity
  8
0
  6
Continuous
 62
     7
370
    30
100
AcDbLine
 10
4.6208916263
 20
2.6469518641
 30
0.0
 11
4.5963916093
 21
2.6610969673
 31
0.0
  0
LINE
  5
157
330
1F
100
AcDbEntity
  8
0
  6
Continuous
 62
     7
370
    30
100
AcDbLine
 10
4.4553915715
 20
2.6610969673
 30
0.0
 11
4.4308916279
 21
2.6469518641
 31
0.0
  0
LINE
  5
158
330
1F
100
AcDbEntity
  8
0
  6
Continuous
 62
     7
370
    30
100
AcDbLine
 10
4.6208916263
 20
2.5913963459
 30
0.0
 11
4.5963916093
 21
2.6055414491
 31
0.0
  0
LINE
  5
159
330
1F
100
AcDbEntity
  8
0
  6
Continuous
 62
     7
370
    30
100
AcDbLine
 10
4.4553915715
 20
2.6055414491
 30
0.0
 11
4.4308916279
 21
2.5913963459
 31
0.0
  0
LINE
  5
15A
330
1F
100
AcDbEntity
  8
0
  6
Continuous
 62
     7
370
    30
100
AcDbLine
 10
4.6208916263
 20
4.2580629924
 30
0.0
 11
4.5963916093
 21
4.2722080956
 31
0.0
  0
LINE
  5
15B
330
1F
100
AcDbEntity
  8
0
  6
Continuous
 62
     7
370
    30
100
AcDbLine
 10
4.4553915715
 20
4.2722080956
 30
0.0
 11
4.4308916279
 21
4.2580629924
 31
0.0
  0
LINE
  5
15C
330
1F
100
AcDbEntity
  8
0
  6
Continuous
 62
     7
370
    30
100
AcDbLine
 10
4.4308916279
 20
4.3136185473
 30
0.0
 11
4.4553915715
 21
4.2994734807
 31
0.0
  0
LINE
  5
15D
330
1F
100
AcDbEntity
  8
0
  6
Continuous
 62
     7
370
    30
100
AcDbLine
 10
4.5963916093
 20
4.2994734807
 30
0.0
 11
4.6208916263
 21
4.3136185473
 31
0.0
  0
LINE
  5
15E
330
1F
100
AcDbEntity
  8
0
  6
Continuous
 62
     7
370
    30
100
AcDbLine
 10
4.4308916279
 20
3.2580630045
 30
0.0
 11
4.4553915715
 21
3.2439179012
 31
0.0
  0
LINE
  5
15F
330
1F
100
AcDbEntity
  8
0
  6
Continuous
 62
     7
370
    30
100
AcDbLine
 10
4.5963916093
 20
3.2439179012
 30
0.0
 11
4.6208916263
 21
3.2580630045
 31
0.0
  0
LINE
  5
160
330
1F
100
AcDbEntity
  8
0
  6
Continuous
 62
     7
370
    30
100
AcDbLine
 10
4.6208916263
 20
3.3136185227
 30
0.0
 11
4.5963916093
 21
3.327763626
 31
0.0
  0
LINE
  5
161
330
1F
100
AcDbEntity
  8
0
  6
Continuous
 62
     7
370
    30
100
AcDbLine
 10
4.4553915715
 20
3.327763626
 30
0.0
 11
4.4308916279
 21
3.3136185227
 31
0.0
  0
LINE
  5
162
330
1F
100
AcDbEntity
  8
0
  6
Continuous
 62
     7
370
    30
100
AcDbLine
 10
4.6208916263
 20
3.2580630045
 30
0.0
 11
4.5963916093
 21
3.2722081077
 31
0.0
  0
LINE
  5
163
330
1F
100
AcDbEntity
  8
0
  6
Continuous
 62
     7
370
    30
100
AcDbLine
 10
4.4553915715
 20
3.2722081077
 30
0.0
 11
4.4308916279
 21
3.2580630045
 31
0.0
  0
LINE
  5
164
330
1F
100
AcDbEntity
  8
0
  6
Continuous
 62
     7
370
    30
100
AcDbLine
 10
4.6208916263
 20
2.5358408276
 30
0.0
 11
4.5963916093
 21
2.5499857842
 31
0.0
  0
LINE
  5
165
330
1F
100
AcDbEntity
  8
0
  6
Continuous
 62
     7
370
    30
100
AcDbLine
 10
4.4553915715
 20
2.5499857842
 30
0.0
 11
4.4308916279
 21
2.5358408276
 31
0.0
  0
LINE
  5
166
330
1F
100
AcDbEntity
  8
0
  6
Continuous
 62
     7
370
    30
100
AcDbLine
 10
4.4308916279
 20
4.2580629924
 30
0.0
 11
4.4553915715
 21
4.2439179258
 31
0.0
  0
LINE
  5
167
330
1F
100
AcDbEntity
  8
0
  6
Continuous
 62
     7
370
    30
100
AcDbLine
 10
4.5963916093
 20
4.2439179258
 30
0.0
 11
4.6208916263
 21
4.2580629924
 31
0.0
  0
LINE
  5
168
330
1F
100
AcDbEntity
  8
0
  6
Continuous
 62
     7
370
    30
100
AcDbLine
 10
4.6208916263
 20
2.7025073823
 30
0.0
 11
4.5963916093
 21
2.7166524856
 31
0.0
  0
LINE
  5
169
330
1F
100
AcDbEntity
  8
0
  6
Continuous
 62
     7
370
    30
100
AcDbLine
 10
4.4553915715
 20
2.7166524856
 30
0.0
 11
4.4308916279
 21
2.7025073823
 31
0.0
  0
LINE
  5
16A
330
1F
100
AcDbEntity
  8
0
  6
Continuous
 62
     7
370
    30
100
AcDbLine
 10
4.4308916279
 20
3.3136185227
 30
0.0
 11
4.4553915715
 21
3.2994734194
 31
0.0
  0
LINE
  5
16B
330
1F
100
AcDbEntity
  8
0
  6
Continuous
 62
     7
370
    30
100
AcDbLine
 10
4.5963916093
 20
3.2994734194
 30
0.0
 11
4.6208916263
 21
3.3136185227
 31
0.0
  0
LINE
  5
16C
330
1F
100
AcDbEntity
  8
0
  6
Continuous
 62
     7
370
    30
100
AcDbLine
 10
4.6208916263
 20
4.1469518826
 30
0.0
 11
4.5963916093
 21
4.1610969859
 31
0.0
  0
LINE
  5
16D
330
1F
100
AcDbEntity
  8
0
  6
Continuous
 62
     7
370
    30
100
AcDbLine
 10
4.4553915715
 20
4.1610969859
 30
0.0
 11
4.4308916279
 21
4.1469518826
 31
0.0
  0
LINE
  5
16E
330
1F
100
AcDbEntity
  8
0
  6
Continuous
 62
     7
370
    30
100
AcDbLine
 10
4.4308916279
 20
4.1469518826
 30
0.0
 11
4.4553915715
 21
4.132806816
 31
0.0
  0
LINE
  5
16F
330
1F
100
AcDbEntity
  8
0
  6
Continuous
 62
     7
370
    30
100
AcDbLine
 10
4.5963916093
 20
4.132806816
 30
0.0
 11
4.6208916263
 21
4.1469518826
 31
0.0
  0
LINE
  5
170
330
1F
100
AcDbEntity
  8
0
  6
Continuous
 62
     7
370
    30
100
AcDbLine
 10
4.4308916279
 20
2.7025073823
 30
0.0
 11
4.4553915715
 21
2.6883624257
 31
0.0
  0
LINE
  5
171
330
1F
100
AcDbEntity
  8
0
  6
Continuous
 62
     7
370
    30
100
AcDbLine
 10
4.5963916093
 20
2.6883624257
 30
0.0
 11
4.6208916263
 21
2.7025073823
 31
0.0
  0
LINE
  5
172
330
1F
100
AcDbEntity
  8
0
  6
Continuous
 62
     7
370
    30
100
AcDbLine
 10
4.4308916279
 20
4.2025074375
 30
0.0
 11
4.4553915715
 21
4.1883623709
 31
0.0
  0
LINE
  5
173
330
1F
100
AcDbEntity
  8
0
  6
Continuous
 62
     7
370
    30
100
AcDbLine
 10
4.5963916093
 20
4.1883623709
 30
0.0
 11
4.6208916263
 21
4.2025074375
 31
0.0
  0
LINE
  5
174
330
1F
100
AcDbEntity
  8
0
  6
Continuous
 62
     7
370
    30
100
AcDbLine
 10
4.6208916263
 20
4.5913963309
 30
0.0
 11
4.5963916093
 21
4.6055414112
 31
0.0
  0
LINE
  5
175
330
1F
100
AcDbEntity
  8
0
  6
Continuous
 62
     7
370
    30
100
AcDbLine
 10
4.4553915715
 20
4.6055414112
 30
0.0
 11
4.4308916279
 21
4.5913963309
 31
0.0
  0
LINE
  5
176
330
1F
100
AcDbEntity
  8
0
  6
Continuous
 62
     7
370
    30
100
AcDbLine
 10
4.4308916279
 20
4.6469518862
 30
0.0
 11
4.4553915715
 21
4.6328068043
 31
0.0
  0
LINE
  5
177
330
1F
100
AcDbEntity
  8
0
  6
Continuous
 62
     7
370
    30
100
AcDbLine
 10
4.5963916093
 20
4.6328068043
 30
0.0
 11
4.6208916263
 21
4.6469518862
 31
0.0
  0
LINE
  5
178
330
1F
100
AcDbEntity
  8
0
  6
Continuous
 62
     7
370
    30
100
AcDbLine
 10
4.4308916279
 20
3.5358407422
 30
0.0
 11
4.4553915715
 21
3.5216957123
 31
0.0
  0
LINE
  5
179
330
1F
100
AcDbEntity
  8
0
  6
Continuous
 62
     7
370
    30
100
AcDbLine
 10
4.5963916093
 20
3.5216957123
 30
0.0
 11
4.6208916263
 21
3.5358407422
 31
0.0
  0
LINE
  5
17A
330
1F
100
AcDbEntity
  8
0
  6
Continuous
 62
     7
370
    30
100
AcDbLine
 10
4.4308916279
 20
4.5913963309
 30
0.0
 11
4.4553915715
 21
4.5772512505
 31
0.0
  0
LINE
  5
17B
330
1F
100
AcDbEntity
  8
0
  6
Continuous
 62
     7
370
    30
100
AcDbLine
 10
4.5963916093
 20
4.5772512505
 30
0.0
 11
4.6208916263
 21
4.5913963309
 31
0.0
  0
LINE
  5
17C
330
1F
100
AcDbEntity
  8
0
  6
Continuous
 62
     7
370
    30
100
AcDbLine
 10
4.6208916263
 20
4.6469518862
 30
0.0
 11
4.5963916093
 21
4.6610969672
 31
0.0
  0
LINE
  5
17D
330
1F
100
AcDbEntity
  8
0
  6
Continuous
 62
     7
370
    30
100
AcDbLine
 10
4.4553915715
 20
4.6610969672
 30
0.0
 11
4.4308916279
 21
4.6469518862
 31
0.0
  0
LINE
  5
17E
330
1F
100
AcDbEntity
  8
0
  6
Continuous
 62
     7
370
    30
100
AcDbLine
 10
4.6208916263
 20
3.5358407422
 30
0.0
 11
4.5963916093
 21
3.5499858455
 31
0.0
  0
LINE
  5
17F
330
1F
100
AcDbEntity
  8
0
  6
Continuous
 62
     7
370
    30
100
AcDbLine
 10
4.4553915715
 20
3.5499858455
 30
0.0
 11
4.4308916279
 21
3.5358407422
 31
0.0
  0
LINE
  5
180
330
1F
100
AcDbEntity
  8
0
  6
Continuous
 62
     7
370
    30
100
AcDbLine
 10
4.6208916263
 20
4.2025074375
 30
0.0
 11
4.5963916093
 21
4.2166525408
 31
0.0
  0
LINE
  5
181
330
1F
100
AcDbEntity
  8
0
  6
Continuous
 62
     7
370
    30
100
AcDbLine
 10
4.4553915715
 20
4.2166525408
 30
0.0
 11
4.4308916279
 21
4.2025074375
 31
0.0
  0
LINE
  5
182
330
1F
100
AcDbEntity
  8
0
  6
Continuous
 62
     7
370
    30
100
AcDbLine
 10
4.6208916263
 20
4.0913963277
 30
0.0
 11
4.5963916093
 21
4.1055413943
 31
0.0
  0
LINE
  5
183
330
1F
100
AcDbEntity
  8
0
  6
Continuous
 62
     7
370
    30
100
AcDbLine
 10
4.4553915715
 20
4.1055413943
 30
0.0
 11
4.4308916279
 21
4.0913963277
 31
0.0
  0
LINE
  5
184
330
1F
100
AcDbEntity
  8
0
  6
Continuous
 62
     7
370
    30
100
AcDbLine
 10
4.4308916279
 20
4.0913963277
 30
0.0
 11
4.4553915715
 21
4.0772512611
 31
0.0
  0
LINE
  5
185
330
1F
100
AcDbEntity
  8
0
  6
Continuous
 62
     7
370
    30
100
AcDbLine
 10
4.5963916093
 20
4.0772512611
 30
0.0
 11
4.6208916263
 21
4.0913963277
 31
0.0
  0
LINE
  5
186
330
1F
100
AcDbEntity
  8
0
  6
Continuous
 62
     7
370
    30
100
AcDbLine
 10
4.6208916263
 20
3.480285224
 30
0.0
 11
4.5963916093
 21
3.4944303273
 31
0.0
  0
LINE
  5
187
330
1F
100
AcDbEntity
  8
0
  6
Continuous
 62
     7
370
    30
100
AcDbLine
 10
4.4553915715
 20
3.4944303273
 30
0.0
 11
4.4308916279
 21
3.480285224
 31
0.0
  0
LINE
  5
188
330
1F
100
AcDbEntity
  8
0
  6
Continuous
 62
     7
370
    30
100
AcDbLine
 10
4.4308916279
 20
3.480285224
 30
0.0
 11
4.4553915715
 21
3.4661401207
 31
0.0
  0
LINE
  5
189
330
1F
100
AcDbEntity
  8
0
  6
Continuous
 62
     7
370
    30
100
AcDbLine
 10
4.5963916093
 20
3.4661401207
 30
0.0
 11
4.6208916263
 21
3.480285224
 31
0.0
  0
LINE
  5
18A
330
1F
100
AcDbEntity
  8
0
  6
Continuous
 62
     7
370
    30
100
AcDbLine
 10
4.6208916263
 20
4.0358407729
 30
0.0
 11
4.5963916093
 21
4.0499858394
 31
0.0
  0
LINE
  5
18B
330
1F
100
AcDbEntity
  8
0
  6
Continuous
 62
     7
370
    30
100
AcDbLine
 10
4.4553915715
 20
4.0499858394
 30
0.0
 11
4.4308916279
 21
4.0358407729
 31
0.0
  0
LINE
  5
18C
330
1F
100
AcDbEntity
  8
0
  6
Continuous
 62
     7
370
    30
100
AcDbLine
 10
4.4308916279
 20
4.0358407729
 30
0.0
 11
4.4553915715
 21
4.0216956696
 31
0.0
  0
LINE
  5
18D
330
1F
100
AcDbEntity
  8
0
  6
Continuous
 62
     7
370
    30
100
AcDbLine
 10
4.5963916093
 20
4.0216956696
 30
0.0
 11
4.6208916263
 21
4.0358407729
 31
0.0
  0
LINE
  5
18E
330
1F
100
AcDbEntity
  8
0
  6
Continuous
 62
     7
370
    30
100
AcDbLine
 10
4.4308916279
 20
4.3691741022
 30
0.0
 11
4.4553915715
 21
4.3550290356
 31
0.0
  0
LINE
  5
18F
330
1F
100
AcDbEntity
  8
0
  6
Continuous
 62
     7
370
    30
100
AcDbLine
 10
4.5963916093
 20
4.3550290356
 30
0.0
 11
4.6208916263
 21
4.3691741022
 31
0.0
  0
LINE
  5
190
330
1F
100
AcDbEntity
  8
0
  6
Continuous
 62
     7
370
    30
100
AcDbLine
 10
4.4308916279
 20
3.7025074435
 30
0.0
 11
4.4553915715
 21
3.6883623403
 31
0.0
  0
LINE
  5
191
330
1F
100
AcDbEntity
  8
0
  6
Continuous
 62
     7
370
    30
100
AcDbLine
 10
4.5963916093
 20
3.6883623403
 30
0.0
 11
4.6208916263
 21
3.7025074435
 31
0.0
  0
LINE
  5
192
330
1F
100
AcDbEntity
  8
0
  6
Continuous
 62
     7
370
    30
100
AcDbLine
 10
4.6208916263
 20
3.9802852546
 30
0.0
 11
4.5963916093
 21
3.9944302846
 31
0.0
  0
LINE
  5
193
330
1F
100
AcDbEntity
  8
0
  6
Continuous
 62
     7
370
    30
100
AcDbLine
 10
4.4553915715
 20
3.9944302846
 30
0.0
 11
4.4308916279
 21
3.9802852546
 31
0.0
  0
LINE
  5
194
330
1F
100
AcDbEntity
  8
0
  6
Continuous
 62
     7
370
    30
100
AcDbLine
 10
4.4308916279
 20
3.9802852546
 30
0.0
 11
4.4553915715
 21
3.9661401514
 31
0.0
  0
LINE
  5
195
330
1F
100
AcDbEntity
  8
0
  6
Continuous
 62
     7
370
    30
100
AcDbLine
 10
4.5963916093
 20
3.9661401514
 30
0.0
 11
4.6208916263
 21
3.9802852546
 31
0.0
  0
LINE
  5
196
330
1F
100
AcDbEntity
  8
0
  6
Continuous
 62
     7
370
    30
100
AcDbLine
 10
4.4308916279
 20
3.8136185533
 30
0.0
 11
4.4553915715
 21
3.7994734501
 31
0.0
  0
LINE
  5
197
330
1F
100
AcDbEntity
  8
0
  6
Continuous
 62
     7
370
    30
100
AcDbLine
 10
4.5963916093
 20
3.7994734501
 30
0.0
 11
4.6208916263
 21
3.8136185533
 31
0.0
  0
LINE
  5
198
330
1F
100
AcDbEntity
  8
0
  6
Continuous
 62
     7
370
    30
100
AcDbLine
 10
4.4308916279
 20
3.8691741449
 30
0.0
 11
4.4553915715
 21
3.8550290416
 31
0.0
  0
LINE
  5
199
330
1F
100
AcDbEntity
  8
0
  6
Continuous
 62
     7
370
    30
100
AcDbLine
 10
4.5963916093
 20
3.8550290416
 30
0.0
 11
4.6208916263
 21
3.8691741449
 31
0.0
  0
LINE
  5
19A
330
1F
100
AcDbEntity
  8
0
  6
Continuous
 62
     7
370
    30
100
AcDbLine
 10
4.6208916263
 20
4.4802852119
 30
0.0
 11
4.5963916093
 21
4.4944302969
 31
0.0
  0
LINE
  5
19B
330
1F
100
AcDbEntity
  8
0
  6
Continuous
 62
     7
370
    30
100
AcDbLine
 10
4.4553915715
 20
4.4944302969
 30
0.0
 11
4.4308916279
 21
4.4802852119
 31
0.0
  0
LINE
  5
19C
330
1F
100
AcDbEntity
  8
0
  6
Continuous
 62
     7
370
    30
100
AcDbLine
 10
4.6208916263
 20
3.7580629618
 30
0.0
 11
4.5963916093
 21
3.772208065
 31
0.0
  0
LINE
  5
19D
330
1F
100
AcDbEntity
  8
0
  6
Continuous
 62
     7
370
    30
100
AcDbLine
 10
4.4553915715
 20
3.772208065
 30
0.0
 11
4.4308916279
 21
3.7580629618
 31
0.0
  0
LINE
  5
19E
330
1F
100
AcDbEntity
  8
0
  6
Continuous
 62
     7
370
    30
100
AcDbLine
 10
4.6208916263
 20
4.3691741022
 30
0.0
 11
4.5963916093
 21
4.3833191871
 31
0.0
  0
LINE
  5
19F
330
1F
100
AcDbEntity
  8
0
  6
Continuous
 62
     7
370
    30
100
AcDbLine
 10
4.4553915715
 20
4.3833191871
 30
0.0
 11
4.4308916279
 21
4.3691741022
 31
0.0
  0
LINE
  5
1A0
330
1F
100
AcDbEntity
  8
0
  6
Continuous
 62
     7
370
    30
100
AcDbLine
 10
4.6208916263
 20
3.7025074435
 30
0.0
 11
4.5963916093
 21
3.7166525468
 31
0.0
  0
LINE
  5
1A1
330
1F
100
AcDbEntity
  8
0
  6
Continuous
 62
     7
370
    30
100
AcDbLine
 10
4.4553915715
 20
3.7166525468
 30
0.0
 11
4.4308916279
 21
3.7025074435
 31
0.0
  0
LINE
  5
1A2
330
1F
100
AcDbEntity
  8
0
  6
Continuous
 62
     7
370
    30
100
AcDbLine
 10
4.6208916263
 20
3.9247296631
 30
0.0
 11
4.5963916093
 21
3.9388747663
 31
0.0
  0
LINE
  5
1A3
330
1F
100
AcDbEntity
  8
0
  6
Continuous
 62
     7
370
    30
100
AcDbLine
 10
4.4553915715
 20
3.9388747663
 30
0.0
 11
4.4308916279
 21
3.9247296631
 31
0.0
  0
LINE
  5
1A4
330
1F
100
AcDbEntity
  8
0
  6
Continuous
 62
     7
370
    30
100
AcDbLine
 10
4.6208916263
 20
3.8691741449
 30
0.0
 11
4.5963916093
 21
3.8833191748
 31
0.0
  0
LINE
  5
1A5
330
1F
100
AcDbEntity
  8
0
  6
Continuous
 62
     7
370
    30
100
AcDbLine
 10
4.4553915715
 20
3.8833191748
 30
0.0
 11
4.4308916279
 21
3.8691741449
 31
0.0
  0
LINE
  5
1A6
330
1F
100
AcDbEntity
  8
0
  6
Continuous
 62
     7
370
    30
100
AcDbLine
 10
4.6208916263
 20
3.8136185533
 30
0.0
 11
4.5963916093
 21
3.8277636566
 31
0.0
  0
LINE
  5
1A7
330
1F
100
AcDbEntity
  8
0
  6
Continuous
 62
     7
370
    30
100
AcDbLine
 10
4.4553915715
 20
3.8277636566
 30
0.0
 11
4.4308916279
 21
3.8136185533
 31
0.0
  0
LINE
  5
1A8
330
1F
100
AcDbEntity
  8
0
  6
Continuous
 62
     7
370
    30
100
AcDbLine
 10
4.6208916263
 20
4.535840776
 30
0.0
 11
4.5963916093
 21
4.5499858609
 31
0.0
  0
LINE
  5
1A9
330
1F
100
AcDbEntity
  8
0
  6
Continuous
 62
     7
370
    30
100
AcDbLine
 10
4.4553915715
 20
4.5499858609
 30
0.0
 11
4.4308916279
 21
4.535840776
 31
0.0
  0
LINE
  5
1AA
330
1F
100
AcDbEntity
  8
0
  6
Continuous
 62
     7
370
    30
100
AcDbLine
 10
4.4308916279
 20
4.424729657
 30
0.0
 11
4.4553915715
 21
4.4105845904
 31
0.0
  0
LINE
  5
1AB
330
1F
100
AcDbEntity
  8
0
  6
Continuous
 62
     7
370
    30
100
AcDbLine
 10
4.5963916093
 20
4.4105845904
 30
0.0
 11
4.6208916263
 21
4.424729657
 31
0.0
  0
LINE
  5
1AC
330
1F
100
AcDbEntity
  8
0
  6
Continuous
 62
     7
370
    30
100
AcDbLine
 10
4.4308916279
 20
4.535840776
 30
0.0
 11
4.4553915715
 21
4.521695691
 31
0.0
  0
LINE
  5
1AD
330
1F
100
AcDbEntity
  8
0
  6
Continuous
 62
     7
370
    30
100
AcDbLine
 10
4.5963916093
 20
4.521695691
 30
0.0
 11
4.6208916263
 21
4.535840776
 31
0.0
  0
LINE
  5
1AE
330
1F
100
AcDbEntity
  8
0
  6
Continuous
 62
     7
370
    30
100
AcDbLine
 10
4.4308916279
 20
3.9247296631
 30
0.0
 11
4.4553915715
 21
3.9105845598
 31
0.0
  0
LINE
  5
1AF
330
1F
100
AcDbEntity
  8
0
  6
Continuous
 62
     7
370
    30
100
AcDbLine
 10
4.5963916093
 20
3.9105845598
 30
0.0
 11
4.6208916263
 21
3.9247296631
 31
0.0
  0
LINE
  5
1B0
330
1F
100
AcDbEntity
  8
0
  6
Continuous
 62
     7
370
    30
100
AcDbLine
 10
4.4308916279
 20
3.7580629618
 30
0.0
 11
4.4553915715
 21
3.7439179318
 31
0.0
  0
LINE
  5
1B1
330
1F
100
AcDbEntity
  8
0
  6
Continuous
 62
     7
370
    30
100
AcDbLine
 10
4.5963916093
 20
3.7439179318
 30
0.0
 11
4.6208916263
 21
3.7580629618
 31
0.0
  0
LINE
  5
1B2
330
1F
100
AcDbEntity
  8
0
  6
Continuous
 62
     7
370
    30
100
AcDbLine
 10
4.6208916263
 20
4.424729657
 30
0.0
 11
4.5963916093
 21
4.438874742
 31
0.0
  0
LINE
  5
1B3
330
1F
100
AcDbEntity
  8
0
  6
Continuous
 62
     7
370
    30
100
AcDbLine
 10
4.4553915715
 20
4.438874742
 30
0.0
 11
4.4308916279
 21
4.424729657
 31
0.0
  0
LINE
  5
1B4
330
1F
100
AcDbEntity
  8
0
  6
Continuous
 62
     7
370
    30
100
AcDbLine
 10
4.4308916279
 20
4.4802852119
 30
0.0
 11
4.4553915715
 21
4.4661401453
 31
0.0
  0
LINE
  5
1B5
330
1F
100
AcDbEntity
  8
0
  6
Continuous
 62
     7
370
    30
100
AcDbLine
 10
4.5963916093
 20
4.4661401453
 30
0.0
 11
4.6208916263
 21
4.4802852119
 31
0.0
  0
LINE
  5
1B6
330
1F
100
AcDbEntity
  8
0
  6
Continuous
 62
     7
370
    30
100
AcDbLine
 10
4.4553915715
 20
3.4661401207
 30
0.0
 11
4.4553915715
 21
3.4388747357
 31
0.0
  0
LINE
  5
1B7
330
1F
100
AcDbEntity
  8
0
  6
Continuous
 62
     7
370
    30
100
AcDbLine
 10
4.5963916093
 20
3.4388747357
 30
0.0
 11
4.5963916093
 21
3.4661401207
 31
0.0
  0
LINE
  5
1B8
330
1F
100
AcDbEntity
  8
0
  6
Continuous
 62
     7
370
    30
100
AcDbLine
 10
4.4553915715
 20
2.5216957244
 30
0.0
 11
4.4553915715
 21
2.4838206686
 31
0.0
  0
LINE
  5
1B9
330
1F
100
AcDbEntity
  8
0
  6
Continuous
 62
     7
370
    30
100
AcDbLine
 10
4.5963916093
 20
2.4838206686
 30
0.0
 11
4.5963916093
 21
2.5216957244
 31
0.0
  0
LINE
  5
1BA
330
1F
100
AcDbEntity
  8
0
  6
Continuous
 62
     7
370
    30
100
AcDbLine
 10
4.4553915715
 20
2.4838206686
 30
0.0
 11
4.5258916638
 21
2.3136186081
 31
0.0
  0
LINE
  5
1BB
330
1F
100
AcDbEntity
  8
0
  6
Continuous
 62
     7
370
    30
100
AcDbLine
 10
4.5258916638
 20
2.3136186081
 30
0.0
 11
4.5963916093
 21
2.4838206686
 31
0.0
  0
LINE
  5
1BC
330
1F
100
AcDbEntity
  8
0
  6
Continuous
 62
     7
370
    30
100
AcDbLine
 10
4.4553915715
 20
3.4105846025
 30
0.0
 11
4.4553915715
 21
3.3833191442
 31
0.0
  0
LINE
  5
1BD
330
1F
100
AcDbEntity
  8
0
  6
Continuous
 62
     7
370
    30
100
AcDbLine
 10
4.5963916093
 20
3.3833191442
 30
0.0
 11
4.5963916093
 21
3.4105846025
 31
0.0
  0
LINE
  5
1BE
330
1F
100
AcDbEntity
  8
0
  6
Continuous
 62
     7
370
    30
100
AcDbLine
 10
4.4553915715
 20
3.5772512305
 30
0.0
 11
4.4553915715
 21
3.5499858455
 31
0.0
  0
LINE
  5
1BF
330
1F
100
AcDbEntity
  8
0
  6
Continuous
 62
     7
370
    30
100
AcDbLine
 10
4.5963916093
 20
3.5499858455
 30
0.0
 11
4.5963916093
 21
3.5772512305
 31
0.0
  0
LINE
  5
1C0
330
1F
100
AcDbEntity
  8
0
  6
Continuous
 62
     7
370
    30
100
AcDbLine
 10
4.4553915715
 20
4.2439179258
 30
0.0
 11
4.4553915715
 21
4.2166525408
 31
0.0
  0
LINE
  5
1C1
330
1F
100
AcDbEntity
  8
0
  6
Continuous
 62
     7
370
    30
100
AcDbLine
 10
4.5963916093
 20
4.2166525408
 30
0.0
 11
4.5963916093
 21
4.2439179258
 31
0.0
  0
LINE
  5
1C2
330
1F
100
AcDbEntity
  8
0
  6
Continuous
 62
     7
370
    30
100
AcDbLine
 10
4.4553915715
 20
3.3550290843
 30
0.0
 11
4.4553915715
 21
3.327763626
 31
0.0
  0
LINE
  5
1C3
330
1F
100
AcDbEntity
  8
0
  6
Continuous
 62
     7
370
    30
100
AcDbLine
 10
4.5963916093
 20
3.327763626
 30
0.0
 11
4.5963916093
 21
3.3550290843
 31
0.0
  0
LINE
  5
1C4
330
1F
100
AcDbEntity
  8
0
  6
Continuous
 62
     7
370
    30
100
AcDbLine
 10
4.4553915715
 20
2.6328067608
 30
0.0
 11
4.4553915715
 21
2.6055414491
 31
0.0
  0
LINE
  5
1C5
330
1F
100
AcDbEntity
  8
0
  6
Continuous
 62
     7
370
    30
100
AcDbLine
 10
4.5963916093
 20
2.6055414491
 30
0.0
 11
4.5963916093
 21
2.6328067608
 31
0.0
  0
LINE
  5
1C6
330
1F
100
AcDbEntity
  8
0
  6
Continuous
 62
     7
370
    30
100
AcDbLine
 10
4.4553915715
 20
3.2994734194
 30
0.0
 11
4.4553915715
 21
3.2722081077
 31
0.0
  0
LINE
  5
1C7
330
1F
100
AcDbEntity
  8
0
  6
Continuous
 62
     7
370
    30
100
AcDbLine
 10
4.5963916093
 20
3.2722081077
 30
0.0
 11
4.5963916093
 21
3.2994734194
 31
0.0
  0
LINE
  5
1C8
330
1F
100
AcDbEntity
  8
0
  6
Continuous
 62
     7
370
    30
100
AcDbLine
 10
4.4553915715
 20
2.7439179439
 30
0.0
 11
4.4553915715
 21
2.7166524856
 31
0.0
  0
LINE
  5
1C9
330
1F
100
AcDbEntity
  8
0
  6
Continuous
 62
     7
370
    30
100
AcDbLine
 10
4.5963916093
 20
2.7166524856
 30
0.0
 11
4.5963916093
 21
2.7439179439
 31
0.0
  0
LINE
  5
1CA
330
1F
100
AcDbEntity
  8
0
  6
Continuous
 62
     7
370
    30
100
AcDbLine
 10
4.4553915715
 20
3.2439179012
 30
0.0
 11
4.4553915715
 21
3.2166525895
 31
0.0
  0
LINE
  5
1CB
330
1F
100
AcDbEntity
  8
0
  6
Continuous
 62
     7
370
    30
100
AcDbLine
 10
4.5963916093
 20
3.2166525895
 30
0.0
 11
4.5963916093
 21
3.2439179012
 31
0.0
  0
LINE
  5
1CC
330
1F
100
AcDbEntity
  8
0
  6
Continuous
 62
     7
370
    30
100
AcDbLine
 10
4.4553915715
 20
4.5772512505
 30
0.0
 11
4.4553915715
 21
4.5499858609
 31
0.0
  0
LINE
  5
1CD
330
1F
100
AcDbEntity
  8
0
  6
Continuous
 62
     7
370
    30
100
AcDbLine
 10
4.5963916093
 20
4.5499858609
 30
0.0
 11
4.5963916093
 21
4.5772512505
 31
0.0
  0
LINE
  5
1CE
330
1F
100
AcDbEntity
  8
0
  6
Continuous
 62
     7
370
    30
100
AcDbLine
 10
4.4553915715
 20
4.2994734807
 30
0.0
 11
4.4553915715
 21
4.2722080956
 31
0.0
  0
LINE
  5
1CF
330
1F
100
AcDbEntity
  8
0
  6
Continuous
 62
     7
370
    30
100
AcDbLine
 10
4.5963916093
 20
4.2722080956
 30
0.0
 11
4.5963916093
 21
4.2994734807
 31
0.0
  0
LINE
  5
1D0
330
1F
100
AcDbEntity
  8
0
  6
Continuous
 62
     7
370
    30
100
AcDbLine
 10
4.4553915715
 20
4.3550290356
 30
0.0
 11
4.4553915715
 21
4.3277636505
 31
0.0
  0
LINE
  5
1D1
330
1F
100
AcDbEntity
  8
0
  6
Continuous
 62
     7
370
    30
100
AcDbLine
 10
4.5963916093
 20
4.3277636505
 30
0.0
 11
4.5963916093
 21
4.3550290356
 31
0.0
  0
LINE
  5
1D2
330
1F
100
AcDbEntity
  8
0
  6
Continuous
 62
     7
370
    30
100
AcDbLine
 10
4.4553915715
 20
2.6883624257
 30
0.0
 11
4.4553915715
 21
2.6610969673
 31
0.0
  0
LINE
  5
1D3
330
1F
100
AcDbEntity
  8
0
  6
Continuous
 62
     7
370
    30
100
AcDbLine
 10
4.5963916093
 20
2.6610969673
 30
0.0
 11
4.5963916093
 21
2.6883624257
 31
0.0
  0
LINE
  5
1D4
330
1F
100
AcDbEntity
  8
0
  6
Continuous
 62
     7
370
    30
100
AcDbLine
 10
4.4553915715
 20
2.5772512426
 30
0.0
 11
4.4553915715
 21
2.5499857842
 31
0.0
  0
LINE
  5
1D5
330
1F
100
AcDbEntity
  8
0
  6
Continuous
 62
     7
370
    30
100
AcDbLine
 10
4.5963916093
 20
2.5499857842
 30
0.0
 11
4.5963916093
 21
2.5772512426
 31
0.0
  0
LINE
  5
1D6
330
1F
100
AcDbEntity
  8
0
  6
Continuous
 62
     7
370
    30
100
AcDbLine
 10
4.4553915715
 20
4.6328068043
 30
0.0
 11
4.4553915715
 21
4.6055414112
 31
0.0
  0
LINE
  5
1D7
330
1F
100
AcDbEntity
  8
0
  6
Continuous
 62
     7
370
    30
100
AcDbLine
 10
4.5963916093
 20
4.6055414112
 30
0.0
 11
4.5963916093
 21
4.6328068043
 31
0.0
  0
LINE
  5
1D8
330
1F
100
AcDbEntity
  8
0
  6
Continuous
 62
     7
370
    30
100
AcDbLine
 10
4.4553915715
 20
4.6883623603
 30
0.0
 11
4.4553915715
 21
4.6610969672
 31
0.0
  0
LINE
  5
1D9
330
1F
100
AcDbEntity
  8
0
  6
Continuous
 62
     7
370
    30
100
AcDbLine
 10
4.5963916093
 20
4.6610969672
 30
0.0
 11
4.5963916093
 21
4.6883623603
 31
0.0
  0
LINE
  5
1DA
330
1F
100
AcDbEntity
  8
0
  6
Continuous
 62
     7
370
    30
100
AcDbLine
 10
4.4553915715
 20
4.132806816
 30
0.0
 11
4.4553915715
 21
4.1055413943
 31
0.0
  0
LINE
  5
1DB
330
1F
100
AcDbEntity
  8
0
  6
Continuous
 62
     7
370
    30
100
AcDbLine
 10
4.5963916093
 20
4.1055413943
 30
0.0
 11
4.5963916093
 21
4.132806816
 31
0.0
  0
LINE
  5
1DC
330
1F
100
AcDbEntity
  8
0
  6
Continuous
 62
     7
370
    30
100
AcDbLine
 10
4.4553915715
 20
3.6328068221
 30
0.0
 11
4.4553915715
 21
3.605541437
 31
0.0
  0
LINE
  5
1DD
330
1F
100
AcDbEntity
  8
0
  6
Continuous
 62
     7
370
    30
100
AcDbLine
 10
4.5963916093
 20
3.605541437
 30
0.0
 11
4.5963916093
 21
3.6328068221
 31
0.0
  0
LINE
  5
1DE
330
1F
100
AcDbEntity
  8
0
  6
Continuous
 62
     7
370
    30
100
AcDbLine
 10
4.4553915715
 20
4.0772512611
 30
0.0
 11
4.4553915715
 21
4.0499858394
 31
0.0
  0
LINE
  5
1DF
330
1F
100
AcDbEntity
  8
0
  6
Continuous
 62
     7
370
    30
100
AcDbLine
 10
4.5963916093
 20
4.0499858394
 30
0.0
 11
4.5963916093
 21
4.0772512611
 31
0.0
  0
LINE
  5
1E0
330
1F
100
AcDbEntity
  8
0
  6
Continuous
 62
     7
370
    30
100
AcDbLine
 10
4.4553915715
 20
4.0216956696
 30
0.0
 11
4.4553915715
 21
3.9944302846
 31
0.0
  0
LINE
  5
1E1
330
1F
100
AcDbEntity
  8
0
  6
Continuous
 62
     7
370
    30
100
AcDbLine
 10
4.5963916093
 20
3.9944302846
 30
0.0
 11
4.5963916093
 21
4.0216956696
 31
0.0
  0
LINE
  5
1E2
330
1F
100
AcDbEntity
  8
0
  6
Continuous
 62
     7
370
    30
100
AcDbLine
 10
4.4553915715
 20
4.1883623709
 30
0.0
 11
4.4553915715
 21
4.1610969859
 31
0.0
  0
LINE
  5
1E3
330
1F
100
AcDbEntity
  8
0
  6
Continuous
 62
     7
370
    30
100
AcDbLine
 10
4.5963916093
 20
4.1610969859
 30
0.0
 11
4.5963916093
 21
4.1883623709
 31
0.0
  0
LINE
  5
1E4
330
1F
100
AcDbEntity
  8
0
  6
Continuous
 62
     7
370
    30
100
AcDbLine
 10
4.4553915715
 20
3.5216957123
 30
0.0
 11
4.4553915715
 21
3.4944303273
 31
0.0
  0
LINE
  5
1E5
330
1F
100
AcDbEntity
  8
0
  6
Continuous
 62
     7
370
    30
100
AcDbLine
 10
4.5963916093
 20
3.4944303273
 30
0.0
 11
4.5963916093
 21
3.5216957123
 31
0.0
  0
LINE
  5
1E6
330
1F
100
AcDbEntity
  8
0
  6
Continuous
 62
     7
370
    30
100
AcDbLine
 10
4.4553915715
 20
4.521695691
 30
0.0
 11
4.4553915715
 21
4.4944302969
 31
0.0
  0
LINE
  5
1E7
330
1F
100
AcDbEntity
  8
0
  6
Continuous
 62
     7
370
    30
100
AcDbLine
 10
4.5963916093
 20
4.4944302969
 30
0.0
 11
4.5963916093
 21
4.521695691
 31
0.0
  0
LINE
  5
1E8
330
1F
100
AcDbEntity
  8
0
  6
Continuous
 62
     7
370
    30
100
AcDbLine
 10
4.4553915715
 20
4.4105845904
 30
0.0
 11
4.4553915715
 21
4.3833191871
 31
0.0
  0
LINE
  5
1E9
330
1F
100
AcDbEntity
  8
0
  6
Continuous
 62
     7
370
    30
100
AcDbLine
 10
4.5963916093
 20
4.3833191871
 30
0.0
 11
4.5963916093
 21
4.4105845904
 31
0.0
  0
LINE
  5
1EA
330
1F
100
AcDbEntity
  8
0
  6
Continuous
 62
     7
370
    30
100
AcDbLine
 10
4.4553915715
 20
3.9661401514
 30
0.0
 11
4.4553915715
 21
3.9388747663
 31
0.0
  0
LINE
  5
1EB
330
1F
100
AcDbEntity
  8
0
  6
Continuous
 62
     7
370
    30
100
AcDbLine
 10
4.5963916093
 20
3.9388747663
 30
0.0
 11
4.5963916093
 21
3.9661401514
 31
0.0
  0
LINE
  5
1EC
330
1F
100
AcDbEntity
  8
0
  6
Continuous
 62
     7
370
    30
100
AcDbLine
 10
4.4553915715
 20
4.4661401453
 30
0.0
 11
4.4553915715
 21
4.438874742
 31
0.0
  0
LINE
  5
1ED
330
1F
100
AcDbEntity
  8
0
  6
Continuous
 62
     7
370
    30
100
AcDbLine
 10
4.5963916093
 20
4.438874742
 30
0.0
 11
4.5963916093
 21
4.4661401453
 31
0.0
  0
LINE
  5
1EE
330
1F
100
AcDbEntity
  8
0
  6
Continuous
 62
     7
370
    30
100
AcDbLine
 10
4.4553915715
 20
3.7439179318
 30
0.0
 11
4.4553915715
 21
3.7166525468
 31
0.0
  0
LINE
  5
1EF
330
1F
100
AcDbEntity
  8
0
  6
Continuous
 62
     7
370
    30
100
AcDbLine
 10
4.5963916093
 20
3.7166525468
 30
0.0
 11
4.5963916093
 21
3.7439179318
 31
0.0
  0
LINE
  5
1F0
330
1F
100
AcDbEntity
  8
0
  6
Continuous
 62
     7
370
    30
100
AcDbLine
 10
4.4553915715
 20
3.9105845598
 30
0.0
 11
4.4553915715
 21
3.8833191748
 31
0.0
  0
LINE
  5
1F1
330
1F
100
AcDbEntity
  8
0
  6
Continuous
 62
     7
370
    30
100
AcDbLine
 10
4.5963916093
 20
3.8833191748
 30
0.0
 11
4.5963916093
 21
3.9105845598
 31
0.0
  0
LINE
  5
1F2
330
1F
100
AcDbEntity
  8
0
  6
Continuous
 62
     7
370
    30
100
AcDbLine
 10
4.4553915715
 20
3.7994734501
 30
0.0
 11
4.4553915715
 21
3.772208065
 31
0.0
  0
LINE
  5
1F3
330
1F
100
AcDbEntity
  8
0
  6
Continuous
 62
     7
370
    30
100
AcDbLine
 10
4.5963916093
 20
3.772208065
 30
0.0
 11
4.5963916093
 21
3.7994734501
 31
0.0
  0
LINE
  5
1F4
330
1F
100
AcDbEntity
  8
0
  6
Continuous
 62
     7
370
    30
100
AcDbLine
 10
4.4553915715
 20
3.8550290416
 30
0.0
 11
4.4553915715
 21
3.8277636566
 31
0.0
  0
LINE
  5
1F5
330
1F
100
AcDbEntity
  8
0
  6
Continuous
 62
     7
370
    30
100
AcDbLine
 10
4.5963916093
 20
3.8277636566
 30
0.0
 11
4.5963916093
 21
3.8550290416
 31
0.0
  0
LINE
  5
1F6
330
1F
100
AcDbEntity
  8
0
  6
Continuous
 62
     7
370
    30
100
AcDbLine
 10
4.4553915715
 20
3.6883623403
 30
0.0
 11
4.4553915715
 21
3.6610969553
 31
0.0
  0
LINE
  5
1F7
330
1F
100
AcDbEntity
  8
0
  6
Continuous
 62
     7
370
    30
100
AcDbLine
 10
4.5963916093
 20
3.6610969553
 30
0.0
 11
4.5963916093
 21
3.6883623403
 31
0.0
  0
LINE
  5
1F8
330
1F
100
AcDbEntity
  8
0
  6
Continuous
 62
     7
370
    30
100
AcDbLine
 10
3.1821416135
 20
2.770921312
 30
0.0
 11
8.4321416051
 21
2.770921312
 31
0.0
  0
LINE
  5
1F9
330
1F
100
AcDbEntity
  8
0
  6
Continuous
 62
     7
370
    30
100
AcDbLine
 10
8.4321416051
 20
3.2039213366
 30
0.0
 11
3.1821416135
 21
3.2039213366
 31
0.0
  0
LINE
  5
1FA
330
1F
100
AcDbEntity
  8
0
  6
Continuous
 62
     7
370
    30
100
AcDbLine
 10
8.5272092535
 20
3.0823544076
 30
0.0
 11
8.5668202359
 21
3.0767874453
 31
0.0
  0
LINE
  5
1FB
330
1F
100
AcDbEntity
  8
0
  6
Continuous
 62
     7
370
    30
100
AcDbLine
 10
8.5272092535
 20
3.0823544076
 30
0.0
 11
8.7007268224
 21
4.3169945916
 31
0.0
  0
LINE
  5
1FC
330
1F
100
AcDbEntity
  8
0
  6
Continuous
 62
     7
370
    30
100
AcDbLine
 10
8.7851416072
 20
4.9176374646
 30
0.0
 11
8.8045753027
 21
5.0559161155
 31
0.0
  0
LINE
  5
1FD
330
1F
100
AcDbEntity
  8
0
  6
Continuous
 62
     7
370
    30
100
AcDbLine
 10
8.8045753027
 20
5.0559161155
 30
0.0
 11
8.8441859918
 21
5.0503491898
 31
0.0
  0
LINE
  5
1FE
330
1F
100
AcDbEntity
  8
0
  6
Continuous
 62
     7
370
    30
100
AcDbLine
 10
8.5668202359
 20
3.0767874453
 30
0.0
 11
8.7411198224
 21
4.3169945916
 31
0.0
  0
LINE
  5
1FF
330
1F
100
AcDbEntity
  8
0
  6
Continuous
 62
     7
370
    30
100
AcDbLine
 10
8.7851416072
 20
4.6302256027
 30
0.0
 11
8.8441859918
 21
5.0503491898
 31
0.0
  0
ARC
  5
200
330
1F
100
AcDbEntity
  8
0
  6
Continuous
 62
     7
370
    30
100
AcDbCircle
 10
8.4875986703
 20
3.0879213066
 30
0.0
 40
0.04
100
AcDbArc
 50
270.0
 51
352.0
  0
ARC
  5
201
330
1F
100
AcDbEntity
  8
0
  6
Continuous
 62
     7
370
    30
100
AcDbCircle
 10
8.4875986703
 20
3.0879213066
 30
0.0
 40
0.0800000000000011
100
AcDbArc
 50
270.0
 51
352.0
  0
LINE
  5
202
330
1F
100
AcDbEntity
  8
0
  6
Continuous
 62
     7
370
    30
100
AcDbLine
 10
8.4875985644
 20
3.0079213475
 30
0.0
 11
8.4875985644
 21
3.0479212854
 31
0.0
  0
LINE
  5
203
330
1F
100
AcDbEntity
  8
0
  6
Continuous
 62
     7
370
    30
100
AcDbLine
 10
8.4321416051
 20
3.0479212854
 30
0.0
 11
8.4875985644
 21
3.0479212854
 31
0.0
  0
LINE
  5
204
330
1F
100
AcDbEntity
  8
0
  6
Continuous
 62
     7
370
    30
100
AcDbLine
 10
8.4321416051
 20
3.0079213475
 30
0.0
 11
8.4875985644
 21
3.0079213475
 31
0.0
  0
LINE
  5
205
330
1F
100
AcDbEntity
  8
0
  6
Continuous
 62
     7
370
    30
100
AcDbLine
 10
2.8097079159
 20
5.0559161155
 30
0.0
 11
2.7700972268
 21
5.0503491898
 31
0.0
  0
LINE
  5
206
330
1F
100
AcDbEntity
  8
0
  6
Continuous
 62
     7
370
    30
100
AcDbLine
 10
3.0870739651
 20
3.0823544076
 30
0.0
 11
2.9135563963
 21
4.3169945916
 31
0.0
  0
LINE
  5
207
330
1F
100
AcDbEntity
  8
0
  6
Continuous
 62
     7
370
    30
100
AcDbLine
 10
2.8291416114
 20
4.9176374646
 30
0.0
 11
2.8097079159
 21
5.0559161155
 31
0.0
  0
LINE
  5
208
330
1F
100
AcDbEntity
  8
0
  6
Continuous
 62
     7
370
    30
100
AcDbLine
 10
3.0474629827
 20
3.0767874453
 30
0.0
 11
3.0870739651
 21
3.0823544076
 31
0.0
  0
LINE
  5
209
330
1F
100
AcDbEntity
  8
0
  6
Continuous
 62
     7
370
    30
100
AcDbLine
 10
3.0474629827
 20
3.0767874453
 30
0.0
 11
2.8731633962
 21
4.3169945916
 31
0.0
  0
LINE
  5
20A
330
1F
100
AcDbEntity
  8
0
  6
Continuous
 62
     7
370
    30
100
AcDbLine
 10
2.8291416114
 20
4.6302256027
 30
0.0
 11
2.7700972268
 21
5.0503491898
 31
0.0
  0
LINE
  5
20B
330
1F
100
AcDbEntity
  8
0
  6
Continuous
 62
     7
370
    30
100
AcDbLine
 10
3.1266846542
 20
3.0479212854
 30
0.0
 11
3.1266846542
 21
3.0079213475
 31
0.0
  0
ARC
  5
20C
330
1F
100
AcDbEntity
  8
0
  6
Continuous
 62
     7
370
    30
100
AcDbCircle
 10
3.1266845483
 20
3.0879213066
 30
0.0
 40
0.0800000000000002
100
AcDbArc
 50
188.0
 51
270.0
  0
ARC
  5
20D
330
1F
100
AcDbEntity
  8
0
  6
Continuous
 62
     7
370
    30
100
AcDbCircle
 10
3.1266845483
 20
3.0879213066
 30
0.0
 40
0.04
100
AcDbArc
 50
188.0
 51
270.0
  0
LINE
  5
20E
330
1F
100
AcDbEntity
  8
0
  6
Continuous
 62
     7
370
    30
100
AcDbLine
 10
3.1821416135
 20
3.0079213475
 30
0.0
 11
3.1266846542
 21
3.0079213475
 31
0.0
  0
LINE
  5
20F
330
1F
100
AcDbEntity
  8
0
  6
Continuous
 62
     7
370
    30
100
AcDbLine
 10
3.1821416135
 20
3.0479212854
 30
0.0
 11
3.1266846542
 21
3.0479212854
 31
0.0
  0
LINE
  5
210
330
1F
100
AcDbEntity
  8
0
  6
Continuous
 62
     7
370
    30
100
AcDbLine
 10
7.0883915549
 20
3.2994734194
 30
0.0
 11
7.1588916471
 21
3.2994734194
 31
0.0
  0
LINE
  5
211
330
1F
100
AcDbEntity
  8
0
  6
Continuous
 62
     7
370
    30
100
AcDbLine
 10
7.0178916093
 20
3.2994734194
 30
0.0
 11
7.0883915549
 21
3.2994734194
 31
0.0
  0
LINE
  5
212
330
1F
100
AcDbEntity
  8
0
  6
Continuous
 62
     7
370
    30
100
AcDbLine
 10
7.0883915549
 20
3.3136185227
 30
0.0
 11
7.1833915908
 21
3.3136185227
 31
0.0
  0
LINE
  5
213
330
1F
100
AcDbEntity
  8
0
  6
Continuous
 62
     7
370
    30
100
AcDbLine
 10
6.9933915923
 20
3.3136185227
 30
0.0
 11
7.0883915549
 21
3.3136185227
 31
0.0
  0
LINE
  5
214
330
1F
100
AcDbEntity
  8
0
  6
Continuous
 62
     7
370
    30
100
AcDbLine
 10
7.0883915549
 20
3.4247296325
 30
0.0
 11
7.1833915908
 21
3.4247296325
 31
0.0
  0
LINE
  5
215
330
1F
100
AcDbEntity
  8
0
  6
Continuous
 62
     7
370
    30
100
AcDbLine
 10
6.9933915923
 20
3.4247296325
 30
0.0
 11
7.0883915549
 21
3.4247296325
 31
0.0
  0
LINE
  5
216
330
1F
100
AcDbEntity
  8
0
  6
Continuous
 62
     7
370
    30
100
AcDbLine
 10
7.1588916471
 20
3.4388747357
 30
0.0
 11
7.0178916093
 21
3.4388747357
 31
0.0
  0
LINE
  5
217
330
1F
100
AcDbEntity
  8
0
  6
Continuous
 62
     7
370
    30
100
AcDbLine
 10
7.0883915549
 20
3.2439179012
 30
0.0
 11
7.1588916471
 21
3.2439179012
 31
0.0
  0
LINE
  5
218
330
1F
100
AcDbEntity
  8
0
  6
Continuous
 62
     7
370
    30
100
AcDbLine
 10
7.0178916093
 20
3.2439179012
 30
0.0
 11
7.0883915549
 21
3.2439179012
 31
0.0
  0
LINE
  5
219
330
1F
100
AcDbEntity
  8
0
  6
Continuous
 62
     7
370
    30
100
AcDbLine
 10
7.0883915549
 20
3.2580630045
 30
0.0
 11
7.1833915908
 21
3.2580630045
 31
0.0
  0
LINE
  5
21A
330
1F
100
AcDbEntity
  8
0
  6
Continuous
 62
     7
370
    30
100
AcDbLine
 10
6.9933915923
 20
3.2580630045
 30
0.0
 11
7.0883915549
 21
3.2580630045
 31
0.0
  0
LINE
  5
21B
330
1F
100
AcDbEntity
  8
0
  6
Continuous
 62
     7
370
    30
100
AcDbLine
 10
7.1588916471
 20
3.2166525895
 30
0.0
 11
7.0178916093
 21
3.2166525895
 31
0.0
  0
LINE
  5
21C
330
1F
100
AcDbEntity
  8
0
  6
Continuous
 62
     7
370
    30
100
AcDbLine
 10
7.0883915549
 20
2.6328067608
 30
0.0
 11
7.1588916471
 21
2.6328067608
 31
0.0
  0
LINE
  5
21D
330
1F
100
AcDbEntity
  8
0
  6
Continuous
 62
     7
370
    30
100
AcDbLine
 10
7.0178916093
 20
2.6328067608
 30
0.0
 11
7.0883915549
 21
2.6328067608
 31
0.0
  0
LINE
  5
21E
330
1F
100
AcDbEntity
  8
0
  6
Continuous
 62
     7
370
    30
100
AcDbLine
 10
7.0883915549
 20
2.6469518641
 30
0.0
 11
7.1833915908
 21
2.6469518641
 31
0.0
  0
LINE
  5
21F
330
1F
100
AcDbEntity
  8
0
  6
Continuous
 62
     7
370
    30
100
AcDbLine
 10
6.9933915923
 20
2.6469518641
 30
0.0
 11
7.0883915549
 21
2.6469518641
 31
0.0
  0
LINE
  5
220
330
1F
100
AcDbEntity
  8
0
  6
Continuous
 62
     7
370
    30
100
AcDbLine
 10
7.0883915549
 20
3.4105846025
 30
0.0
 11
7.1588916471
 21
3.4105846025
 31
0.0
  0
LINE
  5
221
330
1F
100
AcDbEntity
  8
0
  6
Continuous
 62
     7
370
    30
100
AcDbLine
 10
7.0178916093
 20
3.4105846025
 30
0.0
 11
7.0883915549
 21
3.4105846025
 31
0.0
  0
LINE
  5
222
330
1F
100
AcDbEntity
  8
0
  6
Continuous
 62
     7
370
    30
100
AcDbLine
 10
7.0883915549
 20
3.3691740409
 30
0.0
 11
7.1833915908
 21
3.3691740409
 31
0.0
  0
LINE
  5
223
330
1F
100
AcDbEntity
  8
0
  6
Continuous
 62
     7
370
    30
100
AcDbLine
 10
6.9933915923
 20
3.3691740409
 30
0.0
 11
7.0883915549
 21
3.3691740409
 31
0.0
  0
LINE
  5
224
330
1F
100
AcDbEntity
  8
0
  6
Continuous
 62
     7
370
    30
100
AcDbLine
 10
7.1588916471
 20
3.3833191442
 30
0.0
 11
7.0178916093
 21
3.3833191442
 31
0.0
  0
LINE
  5
225
330
1F
100
AcDbEntity
  8
0
  6
Continuous
 62
     7
370
    30
100
AcDbLine
 10
7.0883915549
 20
3.646951852
 30
0.0
 11
7.1833915908
 21
3.646951852
 31
0.0
  0
LINE
  5
226
330
1F
100
AcDbEntity
  8
0
  6
Continuous
 62
     7
370
    30
100
AcDbLine
 10
6.9933915923
 20
3.646951852
 30
0.0
 11
7.0883915549
 21
3.646951852
 31
0.0
  0
LINE
  5
227
330
1F
100
AcDbEntity
  8
0
  6
Continuous
 62
     7
370
    30
100
AcDbLine
 10
7.1588916471
 20
3.6610969553
 30
0.0
 11
7.0178916093
 21
3.6610969553
 31
0.0
  0
LINE
  5
228
330
1F
100
AcDbEntity
  8
0
  6
Continuous
 62
     7
370
    30
100
AcDbLine
 10
7.0883915549
 20
3.5772512305
 30
0.0
 11
7.1588916471
 21
3.5772512305
 31
0.0
  0
LINE
  5
229
330
1F
100
AcDbEntity
  8
0
  6
Continuous
 62
     7
370
    30
100
AcDbLine
 10
7.0178916093
 20
3.5772512305
 30
0.0
 11
7.0883915549
 21
3.5772512305
 31
0.0
  0
LINE
  5
22A
330
1F
100
AcDbEntity
  8
0
  6
Continuous
 62
     7
370
    30
100
AcDbLine
 10
7.0883915549
 20
3.5913963338
 30
0.0
 11
7.1833915908
 21
3.5913963338
 31
0.0
  0
LINE
  5
22B
330
1F
100
AcDbEntity
  8
0
  6
Continuous
 62
     7
370
    30
100
AcDbLine
 10
6.9933915923
 20
3.5913963338
 30
0.0
 11
7.0883915549
 21
3.5913963338
 31
0.0
  0
LINE
  5
22C
330
1F
100
AcDbEntity
  8
0
  6
Continuous
 62
     7
370
    30
100
AcDbLine
 10
7.0883915549
 20
4.7025074406
 30
0.0
 11
7.1833915908
 21
4.7025074406
 31
0.0
  0
LINE
  5
22D
330
1F
100
AcDbEntity
  8
0
  6
Continuous
 62
     7
370
    30
100
AcDbLine
 10
6.9933915923
 20
4.7025074406
 30
0.0
 11
7.0883915549
 21
4.7025074406
 31
0.0
  0
LINE
  5
22E
330
1F
100
AcDbEntity
  8
0
  6
Continuous
 62
     7
370
    30
100
AcDbLine
 10
7.1210105781
 20
4.7166525256
 30
0.0
 11
7.0557725317
 21
4.7166525256
 31
0.0
  0
LINE
  5
22F
330
1F
100
AcDbEntity
  8
0
  6
Continuous
 62
     7
370
    30
100
AcDbLine
 10
7.0883915549
 20
2.5913963459
 30
0.0
 11
7.1833915908
 21
2.5913963459
 31
0.0
  0
LINE
  5
230
330
1F
100
AcDbEntity
  8
0
  6
Continuous
 62
     7
370
    30
100
AcDbLine
 10
6.9933915923
 20
2.5913963459
 30
0.0
 11
7.0883915549
 21
2.5913963459
 31
0.0
  0
LINE
  5
231
330
1F
100
AcDbEntity
  8
0
  6
Continuous
 62
     7
370
    30
100
AcDbLine
 10
7.1588916471
 20
2.6055414491
 30
0.0
 11
7.0178916093
 21
2.6055414491
 31
0.0
  0
LINE
  5
232
330
1F
100
AcDbEntity
  8
0
  6
Continuous
 62
     7
370
    30
100
AcDbLine
 10
7.0883915549
 20
2.7580630472
 30
0.0
 11
7.1833915908
 21
2.7580630472
 31
0.0
  0
LINE
  5
233
330
1F
100
AcDbEntity
  8
0
  6
Continuous
 62
     7
370
    30
100
AcDbLine
 10
6.9933915923
 20
2.7580630472
 30
0.0
 11
7.0883915549
 21
2.7580630472
 31
0.0
  0
LINE
  5
234
330
1F
100
AcDbEntity
  8
0
  6
Continuous
 62
     7
370
    30
100
AcDbLine
 10
7.1588916471
 20
3.327763626
 30
0.0
 11
7.0178916093
 21
3.327763626
 31
0.0
  0
LINE
  5
235
330
1F
100
AcDbEntity
  8
0
  6
Continuous
 62
     7
370
    30
100
AcDbLine
 10
7.0883915549
 20
2.6883624257
 30
0.0
 11
7.1588916471
 21
2.6883624257
 31
0.0
  0
LINE
  5
236
330
1F
100
AcDbEntity
  8
0
  6
Continuous
 62
     7
370
    30
100
AcDbLine
 10
7.0178916093
 20
2.6883624257
 30
0.0
 11
7.0883915549
 21
2.6883624257
 31
0.0
  0
LINE
  5
237
330
1F
100
AcDbEntity
  8
0
  6
Continuous
 62
     7
370
    30
100
AcDbLine
 10
7.0883915549
 20
2.7025073823
 30
0.0
 11
7.1833915908
 21
2.7025073823
 31
0.0
  0
LINE
  5
238
330
1F
100
AcDbEntity
  8
0
  6
Continuous
 62
     7
370
    30
100
AcDbLine
 10
6.9933915923
 20
2.7025073823
 30
0.0
 11
7.0883915549
 21
2.7025073823
 31
0.0
  0
LINE
  5
239
330
1F
100
AcDbEntity
  8
0
  6
Continuous
 62
     7
370
    30
100
AcDbLine
 10
7.1588916471
 20
3.2722081077
 30
0.0
 11
7.0178916093
 21
3.2722081077
 31
0.0
  0
LINE
  5
23A
330
1F
100
AcDbEntity
  8
0
  6
Continuous
 62
     7
370
    30
100
AcDbLine
 10
7.0883915549
 20
4.3136185473
 30
0.0
 11
7.1833915908
 21
4.3136185473
 31
0.0
  0
LINE
  5
23B
330
1F
100
AcDbEntity
  8
0
  6
Continuous
 62
     7
370
    30
100
AcDbLine
 10
6.9933915923
 20
4.3136185473
 30
0.0
 11
7.0883915549
 21
4.3136185473
 31
0.0
  0
LINE
  5
23C
330
1F
100
AcDbEntity
  8
0
  6
Continuous
 62
     7
370
    30
100
AcDbLine
 10
7.1588916471
 20
4.3277636505
 30
0.0
 11
7.0178916093
 21
4.3277636505
 31
0.0
  0
LINE
  5
23D
330
1F
100
AcDbEntity
  8
0
  6
Continuous
 62
     7
370
    30
100
AcDbLine
 10
7.0883915549
 20
4.2439179258
 30
0.0
 11
7.1588916471
 21
4.2439179258
 31
0.0
  0
LINE
  5
23E
330
1F
100
AcDbEntity
  8
0
  6
Continuous
 62
     7
370
    30
100
AcDbLine
 10
7.0178916093
 20
4.2439179258
 30
0.0
 11
7.0883915549
 21
4.2439179258
 31
0.0
  0
LINE
  5
23F
330
1F
100
AcDbEntity
  8
0
  6
Continuous
 62
     7
370
    30
100
AcDbLine
 10
7.0883915549
 20
4.2580629924
 30
0.0
 11
7.1833915908
 21
4.2580629924
 31
0.0
  0
LINE
  5
240
330
1F
100
AcDbEntity
  8
0
  6
Continuous
 62
     7
370
    30
100
AcDbLine
 10
6.9933915923
 20
4.2580629924
 30
0.0
 11
7.0883915549
 21
4.2580629924
 31
0.0
  0
LINE
  5
241
330
1F
100
AcDbEntity
  8
0
  6
Continuous
 62
     7
370
    30
100
AcDbLine
 10
7.1588916471
 20
3.605541437
 30
0.0
 11
7.0178916093
 21
3.605541437
 31
0.0
  0
LINE
  5
242
330
1F
100
AcDbEntity
  8
0
  6
Continuous
 62
     7
370
    30
100
AcDbLine
 10
7.0883915549
 20
2.5358408276
 30
0.0
 11
7.1833915908
 21
2.5358408276
 31
0.0
  0
LINE
  5
243
330
1F
100
AcDbEntity
  8
0
  6
Continuous
 62
     7
370
    30
100
AcDbLine
 10
6.9933915923
 20
2.5358408276
 30
0.0
 11
7.0883915549
 21
2.5358408276
 31
0.0
  0
LINE
  5
244
330
1F
100
AcDbEntity
  8
0
  6
Continuous
 62
     7
370
    30
100
AcDbLine
 10
7.1588916471
 20
2.5499857842
 30
0.0
 11
7.0178916093
 21
2.5499857842
 31
0.0
  0
LINE
  5
245
330
1F
100
AcDbEntity
  8
0
  6
Continuous
 62
     7
370
    30
100
AcDbLine
 10
7.0883915549
 20
4.6883623603
 30
0.0
 11
7.1588916471
 21
4.6883623603
 31
0.0
  0
LINE
  5
246
330
1F
100
AcDbEntity
  8
0
  6
Continuous
 62
     7
370
    30
100
AcDbLine
 10
7.0178916093
 20
4.6883623603
 30
0.0
 11
7.0883915549
 21
4.6883623603
 31
0.0
  0
LINE
  5
247
330
1F
100
AcDbEntity
  8
0
  6
Continuous
 62
     7
370
    30
100
AcDbLine
 10
7.0883915549
 20
3.3550290843
 30
0.0
 11
7.1588916471
 21
3.3550290843
 31
0.0
  0
LINE
  5
248
330
1F
100
AcDbEntity
  8
0
  6
Continuous
 62
     7
370
    30
100
AcDbLine
 10
7.0178916093
 20
3.3550290843
 30
0.0
 11
7.0883915549
 21
3.3550290843
 31
0.0
  0
LINE
  5
249
330
1F
100
AcDbEntity
  8
0
  6
Continuous
 62
     7
370
    30
100
AcDbLine
 10
7.1588916471
 20
2.7166524856
 30
0.0
 11
7.0178916093
 21
2.7166524856
 31
0.0
  0
LINE
  5
24A
330
1F
100
AcDbEntity
  8
0
  6
Continuous
 62
     7
370
    30
100
AcDbLine
 10
7.1588916471
 20
2.6610969673
 30
0.0
 11
7.0178916093
 21
2.6610969673
 31
0.0
  0
LINE
  5
24B
330
1F
100
AcDbEntity
  8
0
  6
Continuous
 62
     7
370
    30
100
AcDbLine
 10
7.0883915549
 20
2.5772512426
 30
0.0
 11
7.1588916471
 21
2.5772512426
 31
0.0
  0
LINE
  5
24C
330
1F
100
AcDbEntity
  8
0
  6
Continuous
 62
     7
370
    30
100
AcDbLine
 10
7.0178916093
 20
2.5772512426
 30
0.0
 11
7.0883915549
 21
2.5772512426
 31
0.0
  0
LINE
  5
24D
330
1F
100
AcDbEntity
  8
0
  6
Continuous
 62
     7
370
    30
100
AcDbLine
 10
7.0883915549
 20
2.5216957244
 30
0.0
 11
7.1588916471
 21
2.5216957244
 31
0.0
  0
LINE
  5
24E
330
1F
100
AcDbEntity
  8
0
  6
Continuous
 62
     7
370
    30
100
AcDbLine
 10
7.0178916093
 20
2.5216957244
 30
0.0
 11
7.0883915549
 21
2.5216957244
 31
0.0
  0
LINE
  5
24F
330
1F
100
AcDbEntity
  8
0
  6
Continuous
 62
     7
370
    30
100
AcDbLine
 10
7.0883915549
 20
4.2994734807
 30
0.0
 11
7.1588916471
 21
4.2994734807
 31
0.0
  0
LINE
  5
250
330
1F
100
AcDbEntity
  8
0
  6
Continuous
 62
     7
370
    30
100
AcDbLine
 10
7.0178916093
 20
4.2994734807
 30
0.0
 11
7.0883915549
 21
4.2994734807
 31
0.0
  0
LINE
  5
251
330
1F
100
AcDbEntity
  8
0
  6
Continuous
 62
     7
370
    30
100
AcDbLine
 10
7.0883915549
 20
3.6328068221
 30
0.0
 11
7.1588916471
 21
3.6328068221
 31
0.0
  0
LINE
  5
252
330
1F
100
AcDbEntity
  8
0
  6
Continuous
 62
     7
370
    30
100
AcDbLine
 10
7.0178916093
 20
3.6328068221
 30
0.0
 11
7.0883915549
 21
3.6328068221
 31
0.0
  0
LINE
  5
253
330
1F
100
AcDbEntity
  8
0
  6
Continuous
 62
     7
370
    30
100
AcDbLine
 10
7.0883915549
 20
4.132806816
 30
0.0
 11
7.1588916471
 21
4.132806816
 31
0.0
  0
LINE
  5
254
330
1F
100
AcDbEntity
  8
0
  6
Continuous
 62
     7
370
    30
100
AcDbLine
 10
7.0178916093
 20
4.132806816
 30
0.0
 11
7.0883915549
 21
4.132806816
 31
0.0
  0
LINE
  5
255
330
1F
100
AcDbEntity
  8
0
  6
Continuous
 62
     7
370
    30
100
AcDbLine
 10
7.0883915549
 20
4.1469518826
 30
0.0
 11
7.1833915908
 21
4.1469518826
 31
0.0
  0
LINE
  5
256
330
1F
100
AcDbEntity
  8
0
  6
Continuous
 62
     7
370
    30
100
AcDbLine
 10
6.9933915923
 20
4.1469518826
 30
0.0
 11
7.0883915549
 21
4.1469518826
 31
0.0
  0
LINE
  5
257
330
1F
100
AcDbEntity
  8
0
  6
Continuous
 62
     7
370
    30
100
AcDbLine
 10
7.1588916471
 20
4.1610969859
 30
0.0
 11
7.0178916093
 21
4.1610969859
 31
0.0
  0
LINE
  5
258
330
1F
100
AcDbEntity
  8
0
  6
Continuous
 62
     7
370
    30
100
AcDbLine
 10
7.1588916471
 20
4.2722080956
 30
0.0
 11
7.0178916093
 21
4.2722080956
 31
0.0
  0
LINE
  5
259
330
1F
100
AcDbEntity
  8
0
  6
Continuous
 62
     7
370
    30
100
AcDbLine
 10
7.0883915549
 20
2.7439179439
 30
0.0
 11
7.1588916471
 21
2.7439179439
 31
0.0
  0
LINE
  5
25A
330
1F
100
AcDbEntity
  8
0
  6
Continuous
 62
     7
370
    30
100
AcDbLine
 10
7.0178916093
 20
2.7439179439
 30
0.0
 11
7.0883915549
 21
2.7439179439
 31
0.0
  0
LINE
  5
25B
330
1F
100
AcDbEntity
  8
0
  6
Continuous
 62
     7
370
    30
100
AcDbLine
 10
7.0883915549
 20
4.1883623709
 30
0.0
 11
7.1588916471
 21
4.1883623709
 31
0.0
  0
LINE
  5
25C
330
1F
100
AcDbEntity
  8
0
  6
Continuous
 62
     7
370
    30
100
AcDbLine
 10
7.0178916093
 20
4.1883623709
 30
0.0
 11
7.0883915549
 21
4.1883623709
 31
0.0
  0
LINE
  5
25D
330
1F
100
AcDbEntity
  8
0
  6
Continuous
 62
     7
370
    30
100
AcDbLine
 10
7.0883915549
 20
4.2025074375
 30
0.0
 11
7.1833915908
 21
4.2025074375
 31
0.0
  0
LINE
  5
25E
330
1F
100
AcDbEntity
  8
0
  6
Continuous
 62
     7
370
    30
100
AcDbLine
 10
6.9933915923
 20
4.2025074375
 30
0.0
 11
7.0883915549
 21
4.2025074375
 31
0.0
  0
LINE
  5
25F
330
1F
100
AcDbEntity
  8
0
  6
Continuous
 62
     7
370
    30
100
AcDbLine
 10
7.0883915549
 20
4.6328068043
 30
0.0
 11
7.1588916471
 21
4.6328068043
 31
0.0
  0
LINE
  5
260
330
1F
100
AcDbEntity
  8
0
  6
Continuous
 62
     7
370
    30
100
AcDbLine
 10
7.0178916093
 20
4.6328068043
 30
0.0
 11
7.0883915549
 21
4.6328068043
 31
0.0
  0
LINE
  5
261
330
1F
100
AcDbEntity
  8
0
  6
Continuous
 62
     7
370
    30
100
AcDbLine
 10
7.0883915549
 20
4.6469518862
 30
0.0
 11
7.1833915908
 21
4.6469518862
 31
0.0
  0
LINE
  5
262
330
1F
100
AcDbEntity
  8
0
  6
Continuous
 62
     7
370
    30
100
AcDbLine
 10
6.9933915923
 20
4.6469518862
 30
0.0
 11
7.0883915549
 21
4.6469518862
 31
0.0
  0
LINE
  5
263
330
1F
100
AcDbEntity
  8
0
  6
Continuous
 62
     7
370
    30
100
AcDbLine
 10
7.0883915549
 20
3.5216957123
 30
0.0
 11
7.1588916471
 21
3.5216957123
 31
0.0
  0
LINE
  5
264
330
1F
100
AcDbEntity
  8
0
  6
Continuous
 62
     7
370
    30
100
AcDbLine
 10
7.0178916093
 20
3.5216957123
 30
0.0
 11
7.0883915549
 21
3.5216957123
 31
0.0
  0
LINE
  5
265
330
1F
100
AcDbEntity
  8
0
  6
Continuous
 62
     7
370
    30
100
AcDbLine
 10
7.0883915549
 20
3.5358407422
 30
0.0
 11
7.1833915908
 21
3.5358407422
 31
0.0
  0
LINE
  5
266
330
1F
100
AcDbEntity
  8
0
  6
Continuous
 62
     7
370
    30
100
AcDbLine
 10
6.9933915923
 20
3.5358407422
 30
0.0
 11
7.0883915549
 21
3.5358407422
 31
0.0
  0
LINE
  5
267
330
1F
100
AcDbEntity
  8
0
  6
Continuous
 62
     7
370
    30
100
AcDbLine
 10
7.1588916471
 20
4.2166525408
 30
0.0
 11
7.0178916093
 21
4.2166525408
 31
0.0
  0
LINE
  5
268
330
1F
100
AcDbEntity
  8
0
  6
Continuous
 62
     7
370
    30
100
AcDbLine
 10
7.0883915549
 20
4.5772512505
 30
0.0
 11
7.1588916471
 21
4.5772512505
 31
0.0
  0
LINE
  5
269
330
1F
100
AcDbEntity
  8
0
  6
Continuous
 62
     7
370
    30
100
AcDbLine
 10
7.0178916093
 20
4.5772512505
 30
0.0
 11
7.0883915549
 21
4.5772512505
 31
0.0
  0
LINE
  5
26A
330
1F
100
AcDbEntity
  8
0
  6
Continuous
 62
     7
370
    30
100
AcDbLine
 10
7.0883915549
 20
4.5913963309
 30
0.0
 11
7.1833915908
 21
4.5913963309
 31
0.0
  0
LINE
  5
26B
330
1F
100
AcDbEntity
  8
0
  6
Continuous
 62
     7
370
    30
100
AcDbLine
 10
6.9933915923
 20
4.5913963309
 30
0.0
 11
7.0883915549
 21
4.5913963309
 31
0.0
  0
LINE
  5
26C
330
1F
100
AcDbEntity
  8
0
  6
Continuous
 62
     7
370
    30
100
AcDbLine
 10
7.1588916471
 20
4.6610969672
 30
0.0
 11
7.0178916093
 21
4.6610969672
 31
0.0
  0
LINE
  5
26D
330
1F
100
AcDbEntity
  8
0
  6
Continuous
 62
     7
370
    30
100
AcDbLine
 10
7.1588916471
 20
4.6055414112
 30
0.0
 11
7.0178916093
 21
4.6055414112
 31
0.0
  0
LINE
  5
26E
330
1F
100
AcDbEntity
  8
0
  6
Continuous
 62
     7
370
    30
100
AcDbLine
 10
7.1588916471
 20
3.5499858455
 30
0.0
 11
7.0178916093
 21
3.5499858455
 31
0.0
  0
LINE
  5
26F
330
1F
100
AcDbEntity
  8
0
  6
Continuous
 62
     7
370
    30
100
AcDbLine
 10
7.0883915549
 20
3.4661401207
 30
0.0
 11
7.1588916471
 21
3.4661401207
 31
0.0
  0
LINE
  5
270
330
1F
100
AcDbEntity
  8
0
  6
Continuous
 62
     7
370
    30
100
AcDbLine
 10
7.0178916093
 20
3.4661401207
 30
0.0
 11
7.0883915549
 21
3.4661401207
 31
0.0
  0
LINE
  5
271
330
1F
100
AcDbEntity
  8
0
  6
Continuous
 62
     7
370
    30
100
AcDbLine
 10
7.0883915549
 20
3.480285224
 30
0.0
 11
7.1833915908
 21
3.480285224
 31
0.0
  0
LINE
  5
272
330
1F
100
AcDbEntity
  8
0
  6
Continuous
 62
     7
370
    30
100
AcDbLine
 10
6.9933915923
 20
3.480285224
 30
0.0
 11
7.0883915549
 21
3.480285224
 31
0.0
  0
LINE
  5
273
330
1F
100
AcDbEntity
  8
0
  6
Continuous
 62
     7
370
    30
100
AcDbLine
 10
7.1588916471
 20
3.4944303273
 30
0.0
 11
7.0178916093
 21
3.4944303273
 31
0.0
  0
LINE
  5
274
330
1F
100
AcDbEntity
  8
0
  6
Continuous
 62
     7
370
    30
100
AcDbLine
 10
7.0883915549
 20
4.0913963277
 30
0.0
 11
7.1833915908
 21
4.0913963277
 31
0.0
  0
LINE
  5
275
330
1F
100
AcDbEntity
  8
0
  6
Continuous
 62
     7
370
    30
100
AcDbLine
 10
6.9933915923
 20
4.0913963277
 30
0.0
 11
7.0883915549
 21
4.0913963277
 31
0.0
  0
LINE
  5
276
330
1F
100
AcDbEntity
  8
0
  6
Continuous
 62
     7
370
    30
100
AcDbLine
 10
7.1588916471
 20
4.1055413943
 30
0.0
 11
7.0178916093
 21
4.1055413943
 31
0.0
  0
LINE
  5
277
330
1F
100
AcDbEntity
  8
0
  6
Continuous
 62
     7
370
    30
100
AcDbLine
 10
7.0883915549
 20
4.0772512611
 30
0.0
 11
7.1588916471
 21
4.0772512611
 31
0.0
  0
LINE
  5
278
330
1F
100
AcDbEntity
  8
0
  6
Continuous
 62
     7
370
    30
100
AcDbLine
 10
7.0178916093
 20
4.0772512611
 30
0.0
 11
7.0883915549
 21
4.0772512611
 31
0.0
  0
LINE
  5
279
330
1F
100
AcDbEntity
  8
0
  6
Continuous
 62
     7
370
    30
100
AcDbLine
 10
7.0883915549
 20
4.0216956696
 30
0.0
 11
7.1588916471
 21
4.0216956696
 31
0.0
  0
LINE
  5
27A
330
1F
100
AcDbEntity
  8
0
  6
Continuous
 62
     7
370
    30
100
AcDbLine
 10
7.0178916093
 20
4.0216956696
 30
0.0
 11
7.0883915549
 21
4.0216956696
 31
0.0
  0
LINE
  5
27B
330
1F
100
AcDbEntity
  8
0
  6
Continuous
 62
     7
370
    30
100
AcDbLine
 10
7.0883915549
 20
4.0358407729
 30
0.0
 11
7.1833915908
 21
4.0358407729
 31
0.0
  0
LINE
  5
27C
330
1F
100
AcDbEntity
  8
0
  6
Continuous
 62
     7
370
    30
100
AcDbLine
 10
6.9933915923
 20
4.0358407729
 30
0.0
 11
7.0883915549
 21
4.0358407729
 31
0.0
  0
LINE
  5
27D
330
1F
100
AcDbEntity
  8
0
  6
Continuous
 62
     7
370
    30
100
AcDbLine
 10
7.1588916471
 20
4.0499858394
 30
0.0
 11
7.0178916093
 21
4.0499858394
 31
0.0
  0
LINE
  5
27E
330
1F
100
AcDbEntity
  8
0
  6
Continuous
 62
     7
370
    30
100
AcDbLine
 10
7.0883915549
 20
3.7025074435
 30
0.0
 11
7.1833915908
 21
3.7025074435
 31
0.0
  0
LINE
  5
27F
330
1F
100
AcDbEntity
  8
0
  6
Continuous
 62
     7
370
    30
100
AcDbLine
 10
6.9933915923
 20
3.7025074435
 30
0.0
 11
7.0883915549
 21
3.7025074435
 31
0.0
  0
LINE
  5
280
330
1F
100
AcDbEntity
  8
0
  6
Continuous
 62
     7
370
    30
100
AcDbLine
 10
7.1588916471
 20
3.7166525468
 30
0.0
 11
7.0178916093
 21
3.7166525468
 31
0.0
  0
LINE
  5
281
330
1F
100
AcDbEntity
  8
0
  6
Continuous
 62
     7
370
    30
100
AcDbLine
 10
7.0883915549
 20
3.8136185533
 30
0.0
 11
7.1833915908
 21
3.8136185533
 31
0.0
  0
LINE
  5
282
330
1F
100
AcDbEntity
  8
0
  6
Continuous
 62
     7
370
    30
100
AcDbLine
 10
6.9933915923
 20
3.8136185533
 30
0.0
 11
7.0883915549
 21
3.8136185533
 31
0.0
  0
LINE
  5
283
330
1F
100
AcDbEntity
  8
0
  6
Continuous
 62
     7
370
    30
100
AcDbLine
 10
7.1588916471
 20
3.8277636566
 30
0.0
 11
7.0178916093
 21
3.8277636566
 31
0.0
  0
LINE
  5
284
330
1F
100
AcDbEntity
  8
0
  6
Continuous
 62
     7
370
    30
100
AcDbLine
 10
7.0883915549
 20
4.424729657
 30
0.0
 11
7.1833915908
 21
4.424729657
 31
0.0
  0
LINE
  5
285
330
1F
100
AcDbEntity
  8
0
  6
Continuous
 62
     7
370
    30
100
AcDbLine
 10
6.9933915923
 20
4.424729657
 30
0.0
 11
7.0883915549
 21
4.424729657
 31
0.0
  0
LINE
  5
286
330
1F
100
AcDbEntity
  8
0
  6
Continuous
 62
     7
370
    30
100
AcDbLine
 10
7.1588916471
 20
4.438874742
 30
0.0
 11
7.0178916093
 21
4.438874742
 31
0.0
  0
LINE
  5
287
330
1F
100
AcDbEntity
  8
0
  6
Continuous
 62
     7
370
    30
100
AcDbLine
 10
7.0883915549
 20
3.8550290416
 30
0.0
 11
7.1588916471
 21
3.8550290416
 31
0.0
  0
LINE
  5
288
330
1F
100
AcDbEntity
  8
0
  6
Continuous
 62
     7
370
    30
100
AcDbLine
 10
7.0178916093
 20
3.8550290416
 30
0.0
 11
7.0883915549
 21
3.8550290416
 31
0.0
  0
LINE
  5
289
330
1F
100
AcDbEntity
  8
0
  6
Continuous
 62
     7
370
    30
100
AcDbLine
 10
7.0883915549
 20
3.8691741449
 30
0.0
 11
7.1833915908
 21
3.8691741449
 31
0.0
  0
LINE
  5
28A
330
1F
100
AcDbEntity
  8
0
  6
Continuous
 62
     7
370
    30
100
AcDbLine
 10
6.9933915923
 20
3.8691741449
 30
0.0
 11
7.0883915549
 21
3.8691741449
 31
0.0
  0
LINE
  5
28B
330
1F
100
AcDbEntity
  8
0
  6
Continuous
 62
     7
370
    30
100
AcDbLine
 10
7.0883915549
 20
3.9247296631
 30
0.0
 11
7.1833915908
 21
3.9247296631
 31
0.0
  0
LINE
  5
28C
330
1F
100
AcDbEntity
  8
0
  6
Continuous
 62
     7
370
    30
100
AcDbLine
 10
6.9933915923
 20
3.9247296631
 30
0.0
 11
7.0883915549
 21
3.9247296631
 31
0.0
  0
LINE
  5
28D
330
1F
100
AcDbEntity
  8
0
  6
Continuous
 62
     7
370
    30
100
AcDbLine
 10
7.1588916471
 20
3.9388747663
 30
0.0
 11
7.0178916093
 21
3.9388747663
 31
0.0
  0
LINE
  5
28E
330
1F
100
AcDbEntity
  8
0
  6
Continuous
 62
     7
370
    30
100
AcDbLine
 10
7.0883915549
 20
4.4661401453
 30
0.0
 11
7.1588916471
 21
4.4661401453
 31
0.0
  0
LINE
  5
28F
330
1F
100
AcDbEntity
  8
0
  6
Continuous
 62
     7
370
    30
100
AcDbLine
 10
7.0178916093
 20
4.4661401453
 30
0.0
 11
7.0883915549
 21
4.4661401453
 31
0.0
  0
LINE
  5
290
330
1F
100
AcDbEntity
  8
0
  6
Continuous
 62
     7
370
    30
100
AcDbLine
 10
7.0883915549
 20
4.4802852119
 30
0.0
 11
7.1833915908
 21
4.4802852119
 31
0.0
  0
LINE
  5
291
330
1F
100
AcDbEntity
  8
0
  6
Continuous
 62
     7
370
    30
100
AcDbLine
 10
6.9933915923
 20
4.4802852119
 30
0.0
 11
7.0883915549
 21
4.4802852119
 31
0.0
  0
LINE
  5
292
330
1F
100
AcDbEntity
  8
0
  6
Continuous
 62
     7
370
    30
100
AcDbLine
 10
7.0883915549
 20
4.4105845904
 30
0.0
 11
7.1588916471
 21
4.4105845904
 31
0.0
  0
LINE
  5
293
330
1F
100
AcDbEntity
  8
0
  6
Continuous
 62
     7
370
    30
100
AcDbLine
 10
7.0178916093
 20
4.4105845904
 30
0.0
 11
7.0883915549
 21
4.4105845904
 31
0.0
  0
LINE
  5
294
330
1F
100
AcDbEntity
  8
0
  6
Continuous
 62
     7
370
    30
100
AcDbLine
 10
7.0883915549
 20
4.521695691
 30
0.0
 11
7.1588916471
 21
4.521695691
 31
0.0
  0
LINE
  5
295
330
1F
100
AcDbEntity
  8
0
  6
Continuous
 62
     7
370
    30
100
AcDbLine
 10
7.0178916093
 20
4.521695691
 30
0.0
 11
7.0883915549
 21
4.521695691
 31
0.0
  0
LINE
  5
296
330
1F
100
AcDbEntity
  8
0
  6
Continuous
 62
     7
370
    30
100
AcDbLine
 10
7.0883915549
 20
4.535840776
 30
0.0
 11
7.1833915908
 21
4.535840776
 31
0.0
  0
LINE
  5
297
330
1F
100
AcDbEntity
  8
0
  6
Continuous
 62
     7
370
    30
100
AcDbLine
 10
6.9933915923
 20
4.535840776
 30
0.0
 11
7.0883915549
 21
4.535840776
 31
0.0
  0
LINE
  5
298
330
1F
100
AcDbEntity
  8
0
  6
Continuous
 62
     7
370
    30
100
AcDbLine
 10
7.1588916471
 20
4.4944302969
 30
0.0
 11
7.0178916093
 21
4.4944302969
 31
0.0
  0
LINE
  5
299
330
1F
100
AcDbEntity
  8
0
  6
Continuous
 62
     7
370
    30
100
AcDbLine
 10
7.0883915549
 20
3.6883623403
 30
0.0
 11
7.1588916471
 21
3.6883623403
 31
0.0
  0
LINE
  5
29A
330
1F
100
AcDbEntity
  8
0
  6
Continuous
 62
     7
370
    30
100
AcDbLine
 10
7.0178916093
 20
3.6883623403
 30
0.0
 11
7.0883915549
 21
3.6883623403
 31
0.0
  0
LINE
  5
29B
330
1F
100
AcDbEntity
  8
0
  6
Continuous
 62
     7
370
    30
100
AcDbLine
 10
7.0883915549
 20
4.3550290356
 30
0.0
 11
7.1588916471
 21
4.3550290356
 31
0.0
  0
LINE
  5
29C
330
1F
100
AcDbEntity
  8
0
  6
Continuous
 62
     7
370
    30
100
AcDbLine
 10
7.0178916093
 20
4.3550290356
 30
0.0
 11
7.0883915549
 21
4.3550290356
 31
0.0
  0
LINE
  5
29D
330
1F
100
AcDbEntity
  8
0
  6
Continuous
 62
     7
370
    30
100
AcDbLine
 10
7.0883915549
 20
4.3691741022
 30
0.0
 11
7.1833915908
 21
4.3691741022
 31
0.0
  0
LINE
  5
29E
330
1F
100
AcDbEntity
  8
0
  6
Continuous
 62
     7
370
    30
100
AcDbLine
 10
6.9933915923
 20
4.3691741022
 30
0.0
 11
7.0883915549
 21
4.3691741022
 31
0.0
  0
LINE
  5
29F
330
1F
100
AcDbEntity
  8
0
  6
Continuous
 62
     7
370
    30
100
AcDbLine
 10
7.1588916471
 20
4.5499858609
 30
0.0
 11
7.0178916093
 21
4.5499858609
 31
0.0
  0
LINE
  5
2A0
330
1F
100
AcDbEntity
  8
0
  6
Continuous
 62
     7
370
    30
100
AcDbLine
 10
7.0883915549
 20
3.9105845598
 30
0.0
 11
7.1588916471
 21
3.9105845598
 31
0.0
  0
LINE
  5
2A1
330
1F
100
AcDbEntity
  8
0
  6
Continuous
 62
     7
370
    30
100
AcDbLine
 10
7.0178916093
 20
3.9105845598
 30
0.0
 11
7.0883915549
 21
3.9105845598
 31
0.0
  0
LINE
  5
2A2
330
1F
100
AcDbEntity
  8
0
  6
Continuous
 62
     7
370
    30
100
AcDbLine
 10
7.1588916471
 20
3.8833191748
 30
0.0
 11
7.0178916093
 21
3.8833191748
 31
0.0
  0
LINE
  5
2A3
330
1F
100
AcDbEntity
  8
0
  6
Continuous
 62
     7
370
    30
100
AcDbLine
 10
7.0883915549
 20
3.7580629618
 30
0.0
 11
7.1833915908
 21
3.7580629618
 31
0.0
  0
LINE
  5
2A4
330
1F
100
AcDbEntity
  8
0
  6
Continuous
 62
     7
370
    30
100
AcDbLine
 10
6.9933915923
 20
3.7580629618
 30
0.0
 11
7.0883915549
 21
3.7580629618
 31
0.0
  0
LINE
  5
2A5
330
1F
100
AcDbEntity
  8
0
  6
Continuous
 62
     7
370
    30
100
AcDbLine
 10
7.1588916471
 20
3.772208065
 30
0.0
 11
7.0178916093
 21
3.772208065
 31
0.0
  0
LINE
  5
2A6
330
1F
100
AcDbEntity
  8
0
  6
Continuous
 62
     7
370
    30
100
AcDbLine
 10
7.0883915549
 20
3.7994734501
 30
0.0
 11
7.1588916471
 21
3.7994734501
 31
0.0
  0
LINE
  5
2A7
330
1F
100
AcDbEntity
  8
0
  6
Continuous
 62
     7
370
    30
100
AcDbLine
 10
7.0178916093
 20
3.7994734501
 30
0.0
 11
7.0883915549
 21
3.7994734501
 31
0.0
  0
LINE
  5
2A8
330
1F
100
AcDbEntity
  8
0
  6
Continuous
 62
     7
370
    30
100
AcDbLine
 10
7.0883915549
 20
3.7439179318
 30
0.0
 11
7.1588916471
 21
3.7439179318
 31
0.0
  0
LINE
  5
2A9
330
1F
100
AcDbEntity
  8
0
  6
Continuous
 62
     7
370
    30
100
AcDbLine
 10
7.0178916093
 20
3.7439179318
 30
0.0
 11
7.0883915549
 21
3.7439179318
 31
0.0
  0
LINE
  5
2AA
330
1F
100
AcDbEntity
  8
0
  6
Continuous
 62
     7
370
    30
100
AcDbLine
 10
7.0883915549
 20
3.9661401514
 30
0.0
 11
7.1588916471
 21
3.9661401514
 31
0.0
  0
LINE
  5
2AB
330
1F
100
AcDbEntity
  8
0
  6
Continuous
 62
     7
370
    30
100
AcDbLine
 10
7.0178916093
 20
3.9661401514
 30
0.0
 11
7.0883915549
 21
3.9661401514
 31
0.0
  0
LINE
  5
2AC
330
1F
100
AcDbEntity
  8
0
  6
Continuous
 62
     7
370
    30
100
AcDbLine
 10
7.0883915549
 20
3.9802852546
 30
0.0
 11
7.1833915908
 21
3.9802852546
 31
0.0
  0
LINE
  5
2AD
330
1F
100
AcDbEntity
  8
0
  6
Continuous
 62
     7
370
    30
100
AcDbLine
 10
6.9933915923
 20
3.9802852546
 30
0.0
 11
7.0883915549
 21
3.9802852546
 31
0.0
  0
LINE
  5
2AE
330
1F
100
AcDbEntity
  8
0
  6
Continuous
 62
     7
370
    30
100
AcDbLine
 10
7.1588916471
 20
3.9944302846
 30
0.0
 11
7.0178916093
 21
3.9944302846
 31
0.0
  0
LINE
  5
2AF
330
1F
100
AcDbEntity
  8
0
  6
Continuous
 62
     7
370
    30
100
AcDbLine
 10
7.1588916471
 20
4.3833191871
 30
0.0
 11
7.0178916093
 21
4.3833191871
 31
0.0
  0
LINE
  5
2B0
330
1F
100
AcDbEntity
  8
0
  6
Continuous
 62
     7
370
    30
100
AcDbLine
 10
7.0883915549
 20
2.4838206686
 30
0.0
 11
7.1588916471
 21
2.4838206686
 31
0.0
  0
LINE
  5
2B1
330
1F
100
AcDbEntity
  8
0
  6
Continuous
 62
     7
370
    30
100
AcDbLine
 10
7.0178916093
 20
2.4838206686
 30
0.0
 11
7.0883915549
 21
2.4838206686
 31
0.0
  0
LINE
  5
2B2
330
1F
100
AcDbEntity
  8
0
  6
Continuous
 62
     7
370
    30
100
AcDbLine
 10
4.5258916638
 20
4.6883623603
 30
0.0
 11
4.5963916093
 21
4.6883623603
 31
0.0
  0
LINE
  5
2B3
330
1F
100
AcDbEntity
  8
0
  6
Continuous
 62
     7
370
    30
100
AcDbLine
 10
4.4553915715
 20
4.6883623603
 30
0.0
 11
4.5258916638
 21
4.6883623603
 31
0.0
  0
LINE
  5
2B4
330
1F
100
AcDbEntity
  8
0
  6
Continuous
 62
     7
370
    30
100
AcDbLine
 10
4.5258916638
 20
4.7025074406
 30
0.0
 11
4.6208916263
 21
4.7025074406
 31
0.0
  0
LINE
  5
2B5
330
1F
100
AcDbEntity
  8
0
  6
Continuous
 62
     7
370
    30
100
AcDbLine
 10
4.4308916279
 20
4.7025074406
 30
0.0
 11
4.5258916638
 21
4.7025074406
 31
0.0
  0
LINE
  5
2B6
330
1F
100
AcDbEntity
  8
0
  6
Continuous
 62
     7
370
    30
100
AcDbLine
 10
4.5258916638
 20
2.7580630472
 30
0.0
 11
4.6208916263
 21
2.7580630472
 31
0.0
  0
LINE
  5
2B7
330
1F
100
AcDbEntity
  8
0
  6
Continuous
 62
     7
370
    30
100
AcDbLine
 10
4.4308916279
 20
2.7580630472
 30
0.0
 11
4.5258916638
 21
2.7580630472
 31
0.0
  0
LINE
  5
2B8
330
1F
100
AcDbEntity
  8
0
  6
Continuous
 62
     7
370
    30
100
AcDbLine
 10
4.5258916638
 20
2.5216957244
 30
0.0
 11
4.5963916093
 21
2.5216957244
 31
0.0
  0
LINE
  5
2B9
330
1F
100
AcDbEntity
  8
0
  6
Continuous
 62
     7
370
    30
100
AcDbLine
 10
4.4553915715
 20
2.5216957244
 30
0.0
 11
4.5258916638
 21
2.5216957244
 31
0.0
  0
LINE
  5
2BA
330
1F
100
AcDbEntity
  8
0
  6
Continuous
 62
     7
370
    30
100
AcDbLine
 10
4.5258916638
 20
2.5358408276
 30
0.0
 11
4.6208916263
 21
2.5358408276
 31
0.0
  0
LINE
  5
2BB
330
1F
100
AcDbEntity
  8
0
  6
Continuous
 62
     7
370
    30
100
AcDbLine
 10
4.4308916279
 20
2.5358408276
 30
0.0
 11
4.5258916638
 21
2.5358408276
 31
0.0
  0
LINE
  5
2BC
330
1F
100
AcDbEntity
  8
0
  6
Continuous
 62
     7
370
    30
100
AcDbLine
 10
4.5258916638
 20
3.3550290843
 30
0.0
 11
4.5963916093
 21
3.3550290843
 31
0.0
  0
LINE
  5
2BD
330
1F
100
AcDbEntity
  8
0
  6
Continuous
 62
     7
370
    30
100
AcDbLine
 10
4.4553915715
 20
3.3550290843
 30
0.0
 11
4.5258916638
 21
3.3550290843
 31
0.0
  0
LINE
  5
2BE
330
1F
100
AcDbEntity
  8
0
  6
Continuous
 62
     7
370
    30
100
AcDbLine
 10
4.5258916638
 20
3.3691740409
 30
0.0
 11
4.6208916263
 21
3.3691740409
 31
0.0
  0
LINE
  5
2BF
330
1F
100
AcDbEntity
  8
0
  6
Continuous
 62
     7
370
    30
100
AcDbLine
 10
4.4308916279
 20
3.3691740409
 30
0.0
 11
4.5258916638
 21
3.3691740409
 31
0.0
  0
LINE
  5
2C0
330
1F
100
AcDbEntity
  8
0
  6
Continuous
 62
     7
370
    30
100
AcDbLine
 10
4.5258916638
 20
3.646951852
 30
0.0
 11
4.6208916263
 21
3.646951852
 31
0.0
  0
LINE
  5
2C1
330
1F
100
AcDbEntity
  8
0
  6
Continuous
 62
     7
370
    30
100
AcDbLine
 10
4.4308916279
 20
3.646951852
 30
0.0
 11
4.5258916638
 21
3.646951852
 31
0.0
  0
LINE
  5
2C2
330
1F
100
AcDbEntity
  8
0
  6
Continuous
 62
     7
370
    30
100
AcDbLine
 10
4.5963916093
 20
3.6610969553
 30
0.0
 11
4.4553915715
 21
3.6610969553
 31
0.0
  0
LINE
  5
2C3
330
1F
100
AcDbEntity
  8
0
  6
Continuous
 62
     7
370
    30
100
AcDbLine
 10
4.5963916093
 20
3.2166525895
 30
0.0
 11
4.4553915715
 21
3.2166525895
 31
0.0
  0
LINE
  5
2C4
330
1F
100
AcDbEntity
  8
0
  6
Continuous
 62
     7
370
    30
100
AcDbLine
 10
4.5585106869
 20
4.7166525256
 30
0.0
 11
4.4932726406
 21
4.7166525256
 31
0.0
  0
LINE
  5
2C5
330
1F
100
AcDbEntity
  8
0
  6
Continuous
 62
     7
370
    30
100
AcDbLine
 10
4.5963916093
 20
3.3833191442
 30
0.0
 11
4.4553915715
 21
3.3833191442
 31
0.0
  0
LINE
  5
2C6
330
1F
100
AcDbEntity
  8
0
  6
Continuous
 62
     7
370
    30
100
AcDbLine
 10
4.5258916638
 20
2.7439179439
 30
0.0
 11
4.5963916093
 21
2.7439179439
 31
0.0
  0
LINE
  5
2C7
330
1F
100
AcDbEntity
  8
0
  6
Continuous
 62
     7
370
    30
100
AcDbLine
 10
4.4553915715
 20
2.7439179439
 30
0.0
 11
4.5258916638
 21
2.7439179439
 31
0.0
  0
LINE
  5
2C8
330
1F
100
AcDbEntity
  8
0
  6
Continuous
 62
     7
370
    30
100
AcDbLine
 10
4.5258916638
 20
3.6328068221
 30
0.0
 11
4.5963916093
 21
3.6328068221
 31
0.0
  0
LINE
  5
2C9
330
1F
100
AcDbEntity
  8
0
  6
Continuous
 62
     7
370
    30
100
AcDbLine
 10
4.4553915715
 20
3.6328068221
 30
0.0
 11
4.5258916638
 21
3.6328068221
 31
0.0
  0
LINE
  5
2CA
330
1F
100
AcDbEntity
  8
0
  6
Continuous
 62
     7
370
    30
100
AcDbLine
 10
4.5258916638
 20
2.6328067608
 30
0.0
 11
4.5963916093
 21
2.6328067608
 31
0.0
  0
LINE
  5
2CB
330
1F
100
AcDbEntity
  8
0
  6
Continuous
 62
     7
370
    30
100
AcDbLine
 10
4.4553915715
 20
2.6328067608
 30
0.0
 11
4.5258916638
 21
2.6328067608
 31
0.0
  0
LINE
  5
2CC
330
1F
100
AcDbEntity
  8
0
  6
Continuous
 62
     7
370
    30
100
AcDbLine
 10
4.5258916638
 20
2.6469518641
 30
0.0
 11
4.6208916263
 21
2.6469518641
 31
0.0
  0
LINE
  5
2CD
330
1F
100
AcDbEntity
  8
0
  6
Continuous
 62
     7
370
    30
100
AcDbLine
 10
4.4308916279
 20
2.6469518641
 30
0.0
 11
4.5258916638
 21
2.6469518641
 31
0.0
  0
LINE
  5
2CE
330
1F
100
AcDbEntity
  8
0
  6
Continuous
 62
     7
370
    30
100
AcDbLine
 10
4.5258916638
 20
2.5772512426
 30
0.0
 11
4.5963916093
 21
2.5772512426
 31
0.0
  0
LINE
  5
2CF
330
1F
100
AcDbEntity
  8
0
  6
Continuous
 62
     7
370
    30
100
AcDbLine
 10
4.4553915715
 20
2.5772512426
 30
0.0
 11
4.5258916638
 21
2.5772512426
 31
0.0
  0
LINE
  5
2D0
330
1F
100
AcDbEntity
  8
0
  6
Continuous
 62
     7
370
    30
100
AcDbLine
 10
4.5258916638
 20
2.5913963459
 30
0.0
 11
4.6208916263
 21
2.5913963459
 31
0.0
  0
LINE
  5
2D1
330
1F
100
AcDbEntity
  8
0
  6
Continuous
 62
     7
370
    30
100
AcDbLine
 10
4.4308916279
 20
2.5913963459
 30
0.0
 11
4.5258916638
 21
2.5913963459
 31
0.0
  0
LINE
  5
2D2
330
1F
100
AcDbEntity
  8
0
  6
Continuous
 62
     7
370
    30
100
AcDbLine
 10
4.5258916638
 20
3.5772512305
 30
0.0
 11
4.5963916093
 21
3.5772512305
 31
0.0
  0
LINE
  5
2D3
330
1F
100
AcDbEntity
  8
0
  6
Continuous
 62
     7
370
    30
100
AcDbLine
 10
4.4553915715
 20
3.5772512305
 30
0.0
 11
4.5258916638
 21
3.5772512305
 31
0.0
  0
LINE
  5
2D4
330
1F
100
AcDbEntity
  8
0
  6
Continuous
 62
     7
370
    30
100
AcDbLine
 10
4.5258916638
 20
3.5913963338
 30
0.0
 11
4.6208916263
 21
3.5913963338
 31
0.0
  0
LINE
  5
2D5
330
1F
100
AcDbEntity
  8
0
  6
Continuous
 62
     7
370
    30
100
AcDbLine
 10
4.4308916279
 20
3.5913963338
 30
0.0
 11
4.5258916638
 21
3.5913963338
 31
0.0
  0
LINE
  5
2D6
330
1F
100
AcDbEntity
  8
0
  6
Continuous
 62
     7
370
    30
100
AcDbLine
 10
4.5258916638
 20
3.4247296325
 30
0.0
 11
4.6208916263
 21
3.4247296325
 31
0.0
  0
LINE
  5
2D7
330
1F
100
AcDbEntity
  8
0
  6
Continuous
 62
     7
370
    30
100
AcDbLine
 10
4.4308916279
 20
3.4247296325
 30
0.0
 11
4.5258916638
 21
3.4247296325
 31
0.0
  0
LINE
  5
2D8
330
1F
100
AcDbEntity
  8
0
  6
Continuous
 62
     7
370
    30
100
AcDbLine
 10
4.5963916093
 20
3.4388747357
 30
0.0
 11
4.4553915715
 21
3.4388747357
 31
0.0
  0
LINE
  5
2D9
330
1F
100
AcDbEntity
  8
0
  6
Continuous
 62
     7
370
    30
100
AcDbLine
 10
4.5258916638
 20
3.4105846025
 30
0.0
 11
4.5963916093
 21
3.4105846025
 31
0.0
  0
LINE
  5
2DA
330
1F
100
AcDbEntity
  8
0
  6
Continuous
 62
     7
370
    30
100
AcDbLine
 10
4.4553915715
 20
3.4105846025
 30
0.0
 11
4.5258916638
 21
3.4105846025
 31
0.0
  0
LINE
  5
2DB
330
1F
100
AcDbEntity
  8
0
  6
Continuous
 62
     7
370
    30
100
AcDbLine
 10
4.5258916638
 20
4.3136185473
 30
0.0
 11
4.6208916263
 21
4.3136185473
 31
0.0
  0
LINE
  5
2DC
330
1F
100
AcDbEntity
  8
0
  6
Continuous
 62
     7
370
    30
100
AcDbLine
 10
4.4308916279
 20
4.3136185473
 30
0.0
 11
4.5258916638
 21
4.3136185473
 31
0.0
  0
LINE
  5
2DD
330
1F
100
AcDbEntity
  8
0
  6
Continuous
 62
     7
370
    30
100
AcDbLine
 10
4.5963916093
 20
4.3277636505
 30
0.0
 11
4.4553915715
 21
4.3277636505
 31
0.0
  0
LINE
  5
2DE
330
1F
100
AcDbEntity
  8
0
  6
Continuous
 62
     7
370
    30
100
AcDbLine
 10
4.5963916093
 20
3.605541437
 30
0.0
 11
4.4553915715
 21
3.605541437
 31
0.0
  0
LINE
  5
2DF
330
1F
100
AcDbEntity
  8
0
  6
Continuous
 62
     7
370
    30
100
AcDbLine
 10
4.5963916093
 20
2.6610969673
 30
0.0
 11
4.4553915715
 21
2.6610969673
 31
0.0
  0
LINE
  5
2E0
330
1F
100
AcDbEntity
  8
0
  6
Continuous
 62
     7
370
    30
100
AcDbLine
 10
4.5963916093
 20
2.6055414491
 30
0.0
 11
4.4553915715
 21
2.6055414491
 31
0.0
  0
LINE
  5
2E1
330
1F
100
AcDbEntity
  8
0
  6
Continuous
 62
     7
370
    30
100
AcDbLine
 10
4.5258916638
 20
4.2580629924
 30
0.0
 11
4.6208916263
 21
4.2580629924
 31
0.0
  0
LINE
  5
2E2
330
1F
100
AcDbEntity
  8
0
  6
Continuous
 62
     7
370
    30
100
AcDbLine
 10
4.4308916279
 20
4.2580629924
 30
0.0
 11
4.5258916638
 21
4.2580629924
 31
0.0
  0
LINE
  5
2E3
330
1F
100
AcDbEntity
  8
0
  6
Continuous
 62
     7
370
    30
100
AcDbLine
 10
4.5963916093
 20
4.2722080956
 30
0.0
 11
4.4553915715
 21
4.2722080956
 31
0.0
  0
LINE
  5
2E4
330
1F
100
AcDbEntity
  8
0
  6
Continuous
 62
     7
370
    30
100
AcDbLine
 10
4.5258916638
 20
4.2994734807
 30
0.0
 11
4.5963916093
 21
4.2994734807
 31
0.0
  0
LINE
  5
2E5
330
1F
100
AcDbEntity
  8
0
  6
Continuous
 62
     7
370
    30
100
AcDbLine
 10
4.4553915715
 20
4.2994734807
 30
0.0
 11
4.5258916638
 21
4.2994734807
 31
0.0
  0
LINE
  5
2E6
330
1F
100
AcDbEntity
  8
0
  6
Continuous
 62
     7
370
    30
100
AcDbLine
 10
4.5258916638
 20
3.2439179012
 30
0.0
 11
4.5963916093
 21
3.2439179012
 31
0.0
  0
LINE
  5
2E7
330
1F
100
AcDbEntity
  8
0
  6
Continuous
 62
     7
370
    30
100
AcDbLine
 10
4.4553915715
 20
3.2439179012
 30
0.0
 11
4.5258916638
 21
3.2439179012
 31
0.0
  0
LINE
  5
2E8
330
1F
100
AcDbEntity
  8
0
  6
Continuous
 62
     7
370
    30
100
AcDbLine
 10
4.5258916638
 20
3.2580630045
 30
0.0
 11
4.6208916263
 21
3.2580630045
 31
0.0
  0
LINE
  5
2E9
330
1F
100
AcDbEntity
  8
0
  6
Continuous
 62
     7
370
    30
100
AcDbLine
 10
4.4308916279
 20
3.2580630045
 30
0.0
 11
4.5258916638
 21
3.2580630045
 31
0.0
  0
LINE
  5
2EA
330
1F
100
AcDbEntity
  8
0
  6
Continuous
 62
     7
370
    30
100
AcDbLine
 10
4.5258916638
 20
3.3136185227
 30
0.0
 11
4.6208916263
 21
3.3136185227
 31
0.0
  0
LINE
  5
2EB
330
1F
100
AcDbEntity
  8
0
  6
Continuous
 62
     7
370
    30
100
AcDbLine
 10
4.4308916279
 20
3.3136185227
 30
0.0
 11
4.5258916638
 21
3.3136185227
 31
0.0
  0
LINE
  5
2EC
330
1F
100
AcDbEntity
  8
0
  6
Continuous
 62
     7
370
    30
100
AcDbLine
 10
4.5963916093
 20
3.327763626
 30
0.0
 11
4.4553915715
 21
3.327763626
 31
0.0
  0
LINE
  5
2ED
330
1F
100
AcDbEntity
  8
0
  6
Continuous
 62
     7
370
    30
100
AcDbLine
 10
4.5963916093
 20
3.2722081077
 30
0.0
 11
4.4553915715
 21
3.2722081077
 31
0.0
  0
LINE
  5
2EE
330
1F
100
AcDbEntity
  8
0
  6
Continuous
 62
     7
370
    30
100
AcDbLine
 10
4.5963916093
 20
2.5499857842
 30
0.0
 11
4.4553915715
 21
2.5499857842
 31
0.0
  0
LINE
  5
2EF
330
1F
100
AcDbEntity
  8
0
  6
Continuous
 62
     7
370
    30
100
AcDbLine
 10
4.5258916638
 20
4.2439179258
 30
0.0
 11
4.5963916093
 21
4.2439179258
 31
0.0
  0
LINE
  5
2F0
330
1F
100
AcDbEntity
  8
0
  6
Continuous
 62
     7
370
    30
100
AcDbLine
 10
4.4553915715
 20
4.2439179258
 30
0.0
 11
4.5258916638
 21
4.2439179258
 31
0.0
  0
LINE
  5
2F1
330
1F
100
AcDbEntity
  8
0
  6
Continuous
 62
     7
370
    30
100
AcDbLine
 10
4.5258916638
 20
2.7025073823
 30
0.0
 11
4.6208916263
 21
2.7025073823
 31
0.0
  0
LINE
  5
2F2
330
1F
100
AcDbEntity
  8
0
  6
Continuous
 62
     7
370
    30
100
AcDbLine
 10
4.4308916279
 20
2.7025073823
 30
0.0
 11
4.5258916638
 21
2.7025073823
 31
0.0
  0
LINE
  5
2F3
330
1F
100
AcDbEntity
  8
0
  6
Continuous
 62
     7
370
    30
100
AcDbLine
 10
4.5963916093
 20
2.7166524856
 30
0.0
 11
4.4553915715
 21
2.7166524856
 31
0.0
  0
LINE
  5
2F4
330
1F
100
AcDbEntity
  8
0
  6
Continuous
 62
     7
370
    30
100
AcDbLine
 10
4.5258916638
 20
3.2994734194
 30
0.0
 11
4.5963916093
 21
3.2994734194
 31
0.0
  0
LINE
  5
2F5
330
1F
100
AcDbEntity
  8
0
  6
Continuous
 62
     7
370
    30
100
AcDbLine
 10
4.4553915715
 20
3.2994734194
 30
0.0
 11
4.5258916638
 21
3.2994734194
 31
0.0
  0
LINE
  5
2F6
330
1F
100
AcDbEntity
  8
0
  6
Continuous
 62
     7
370
    30
100
AcDbLine
 10
4.5258916638
 20
4.1469518826
 30
0.0
 11
4.6208916263
 21
4.1469518826
 31
0.0
  0
LINE
  5
2F7
330
1F
100
AcDbEntity
  8
0
  6
Continuous
 62
     7
370
    30
100
AcDbLine
 10
4.4308916279
 20
4.1469518826
 30
0.0
 11
4.5258916638
 21
4.1469518826
 31
0.0
  0
LINE
  5
2F8
330
1F
100
AcDbEntity
  8
0
  6
Continuous
 62
     7
370
    30
100
AcDbLine
 10
4.5963916093
 20
4.1610969859
 30
0.0
 11
4.4553915715
 21
4.1610969859
 31
0.0
  0
LINE
  5
2F9
330
1F
100
AcDbEntity
  8
0
  6
Continuous
 62
     7
370
    30
100
AcDbLine
 10
4.5258916638
 20
4.132806816
 30
0.0
 11
4.5963916093
 21
4.132806816
 31
0.0
  0
LINE
  5
2FA
330
1F
100
AcDbEntity
  8
0
  6
Continuous
 62
     7
370
    30
100
AcDbLine
 10
4.4553915715
 20
4.132806816
 30
0.0
 11
4.5258916638
 21
4.132806816
 31
0.0
  0
LINE
  5
2FB
330
1F
100
AcDbEntity
  8
0
  6
Continuous
 62
     7
370
    30
100
AcDbLine
 10
4.5258916638
 20
2.6883624257
 30
0.0
 11
4.5963916093
 21
2.6883624257
 31
0.0
  0
LINE
  5
2FC
330
1F
100
AcDbEntity
  8
0
  6
Continuous
 62
     7
370
    30
100
AcDbLine
 10
4.4553915715
 20
2.6883624257
 30
0.0
 11
4.5258916638
 21
2.6883624257
 31
0.0
  0
LINE
  5
2FD
330
1F
100
AcDbEntity
  8
0
  6
Continuous
 62
     7
370
    30
100
AcDbLine
 10
4.5258916638
 20
4.1883623709
 30
0.0
 11
4.5963916093
 21
4.1883623709
 31
0.0
  0
LINE
  5
2FE
330
1F
100
AcDbEntity
  8
0
  6
Continuous
 62
     7
370
    30
100
AcDbLine
 10
4.4553915715
 20
4.1883623709
 30
0.0
 11
4.5258916638
 21
4.1883623709
 31
0.0
  0
LINE
  5
2FF
330
1F
100
AcDbEntity
  8
0
  6
Continuous
 62
     7
370
    30
100
AcDbLine
 10
4.5258916638
 20
4.2025074375
 30
0.0
 11
4.6208916263
 21
4.2025074375
 31
0.0
  0
LINE
  5
300
330
1F
100
AcDbEntity
  8
0
  6
Continuous
 62
     7
370
    30
100
AcDbLine
 10
4.4308916279
 20
4.2025074375
 30
0.0
 11
4.5258916638
 21
4.2025074375
 31
0.0
  0
LINE
  5
301
330
1F
100
AcDbEntity
  8
0
  6
Continuous
 62
     7
370
    30
100
AcDbLine
 10
4.5258916638
 20
4.5913963309
 30
0.0
 11
4.6208916263
 21
4.5913963309
 31
0.0
  0
LINE
  5
302
330
1F
100
AcDbEntity
  8
0
  6
Continuous
 62
     7
370
    30
100
AcDbLine
 10
4.4308916279
 20
4.5913963309
 30
0.0
 11
4.5258916638
 21
4.5913963309
 31
0.0
  0
LINE
  5
303
330
1F
100
AcDbEntity
  8
0
  6
Continuous
 62
     7
370
    30
100
AcDbLine
 10
4.5963916093
 20
4.6055414112
 30
0.0
 11
4.4553915715
 21
4.6055414112
 31
0.0
  0
LINE
  5
304
330
1F
100
AcDbEntity
  8
0
  6
Continuous
 62
     7
370
    30
100
AcDbLine
 10
4.5258916638
 20
4.6328068043
 30
0.0
 11
4.5963916093
 21
4.6328068043
 31
0.0
  0
LINE
  5
305
330
1F
100
AcDbEntity
  8
0
  6
Continuous
 62
     7
370
    30
100
AcDbLine
 10
4.4553915715
 20
4.6328068043
 30
0.0
 11
4.5258916638
 21
4.6328068043
 31
0.0
  0
LINE
  5
306
330
1F
100
AcDbEntity
  8
0
  6
Continuous
 62
     7
370
    30
100
AcDbLine
 10
4.5258916638
 20
4.6469518862
 30
0.0
 11
4.6208916263
 21
4.6469518862
 31
0.0
  0
LINE
  5
307
330
1F
100
AcDbEntity
  8
0
  6
Continuous
 62
     7
370
    30
100
AcDbLine
 10
4.4308916279
 20
4.6469518862
 30
0.0
 11
4.5258916638
 21
4.6469518862
 31
0.0
  0
LINE
  5
308
330
1F
100
AcDbEntity
  8
0
  6
Continuous
 62
     7
370
    30
100
AcDbLine
 10
4.5258916638
 20
3.5216957123
 30
0.0
 11
4.5963916093
 21
3.5216957123
 31
0.0
  0
LINE
  5
309
330
1F
100
AcDbEntity
  8
0
  6
Continuous
 62
     7
370
    30
100
AcDbLine
 10
4.4553915715
 20
3.5216957123
 30
0.0
 11
4.5258916638
 21
3.5216957123
 31
0.0
  0
LINE
  5
30A
330
1F
100
AcDbEntity
  8
0
  6
Continuous
 62
     7
370
    30
100
AcDbLine
 10
4.5258916638
 20
3.5358407422
 30
0.0
 11
4.6208916263
 21
3.5358407422
 31
0.0
  0
LINE
  5
30B
330
1F
100
AcDbEntity
  8
0
  6
Continuous
 62
     7
370
    30
100
AcDbLine
 10
4.4308916279
 20
3.5358407422
 30
0.0
 11
4.5258916638
 21
3.5358407422
 31
0.0
  0
LINE
  5
30C
330
1F
100
AcDbEntity
  8
0
  6
Continuous
 62
     7
370
    30
100
AcDbLine
 10
4.5258916638
 20
4.5772512505
 30
0.0
 11
4.5963916093
 21
4.5772512505
 31
0.0
  0
LINE
  5
30D
330
1F
100
AcDbEntity
  8
0
  6
Continuous
 62
     7
370
    30
100
AcDbLine
 10
4.4553915715
 20
4.5772512505
 30
0.0
 11
4.5258916638
 21
4.5772512505
 31
0.0
  0
LINE
  5
30E
330
1F
100
AcDbEntity
  8
0
  6
Continuous
 62
     7
370
    30
100
AcDbLine
 10
4.5963916093
 20
4.6610969672
 30
0.0
 11
4.4553915715
 21
4.6610969672
 31
0.0
  0
LINE
  5
30F
330
1F
100
AcDbEntity
  8
0
  6
Continuous
 62
     7
370
    30
100
AcDbLine
 10
4.5963916093
 20
3.5499858455
 30
0.0
 11
4.4553915715
 21
3.5499858455
 31
0.0
  0
LINE
  5
310
330
1F
100
AcDbEntity
  8
0
  6
Continuous
 62
     7
370
    30
100
AcDbLine
 10
4.5963916093
 20
4.2166525408
 30
0.0
 11
4.4553915715
 21
4.2166525408
 31
0.0
  0
LINE
  5
311
330
1F
100
AcDbEntity
  8
0
  6
Continuous
 62
     7
370
    30
100
AcDbLine
 10
4.5258916638
 20
4.0913963277
 30
0.0
 11
4.6208916263
 21
4.0913963277
 31
0.0
  0
LINE
  5
312
330
1F
100
AcDbEntity
  8
0
  6
Continuous
 62
     7
370
    30
100
AcDbLine
 10
4.4308916279
 20
4.0913963277
 30
0.0
 11
4.5258916638
 21
4.0913963277
 31
0.0
  0
LINE
  5
313
330
1F
100
AcDbEntity
  8
0
  6
Continuous
 62
     7
370
    30
100
AcDbLine
 10
4.5963916093
 20
4.1055413943
 30
0.0
 11
4.4553915715
 21
4.1055413943
 31
0.0
  0
LINE
  5
314
330
1F
100
AcDbEntity
  8
0
  6
Continuous
 62
     7
370
    30
100
AcDbLine
 10
4.5258916638
 20
4.0772512611
 30
0.0
 11
4.5963916093
 21
4.0772512611
 31
0.0
  0
LINE
  5
315
330
1F
100
AcDbEntity
  8
0
  6
Continuous
 62
     7
370
    30
100
AcDbLine
 10
4.4553915715
 20
4.0772512611
 30
0.0
 11
4.5258916638
 21
4.0772512611
 31
0.0
  0
LINE
  5
316
330
1F
100
AcDbEntity
  8
0
  6
Continuous
 62
     7
370
    30
100
AcDbLine
 10
4.5258916638
 20
3.480285224
 30
0.0
 11
4.6208916263
 21
3.480285224
 31
0.0
  0
LINE
  5
317
330
1F
100
AcDbEntity
  8
0
  6
Continuous
 62
     7
370
    30
100
AcDbLine
 10
4.4308916279
 20
3.480285224
 30
0.0
 11
4.5258916638
 21
3.480285224
 31
0.0
  0
LINE
  5
318
330
1F
100
AcDbEntity
  8
0
  6
Continuous
 62
     7
370
    30
100
AcDbLine
 10
4.5963916093
 20
3.4944303273
 30
0.0
 11
4.4553915715
 21
3.4944303273
 31
0.0
  0
LINE
  5
319
330
1F
100
AcDbEntity
  8
0
  6
Continuous
 62
     7
370
    30
100
AcDbLine
 10
4.5258916638
 20
3.4661401207
 30
0.0
 11
4.5963916093
 21
3.4661401207
 31
0.0
  0
LINE
  5
31A
330
1F
100
AcDbEntity
  8
0
  6
Continuous
 62
     7
370
    30
100
AcDbLine
 10
4.4553915715
 20
3.4661401207
 30
0.0
 11
4.5258916638
 21
3.4661401207
 31
0.0
  0
LINE
  5
31B
330
1F
100
AcDbEntity
  8
0
  6
Continuous
 62
     7
370
    30
100
AcDbLine
 10
4.5258916638
 20
4.0358407729
 30
0.0
 11
4.6208916263
 21
4.0358407729
 31
0.0
  0
LINE
  5
31C
330
1F
100
AcDbEntity
  8
0
  6
Continuous
 62
     7
370
    30
100
AcDbLine
 10
4.4308916279
 20
4.0358407729
 30
0.0
 11
4.5258916638
 21
4.0358407729
 31
0.0
  0
LINE
  5
31D
330
1F
100
AcDbEntity
  8
0
  6
Continuous
 62
     7
370
    30
100
AcDbLine
 10
4.5963916093
 20
4.0499858394
 30
0.0
 11
4.4553915715
 21
4.0499858394
 31
0.0
  0
LINE
  5
31E
330
1F
100
AcDbEntity
  8
0
  6
Continuous
 62
     7
370
    30
100
AcDbLine
 10
4.5258916638
 20
4.0216956696
 30
0.0
 11
4.5963916093
 21
4.0216956696
 31
0.0
  0
LINE
  5
31F
330
1F
100
AcDbEntity
  8
0
  6
Continuous
 62
     7
370
    30
100
AcDbLine
 10
4.4553915715
 20
4.0216956696
 30
0.0
 11
4.5258916638
 21
4.0216956696
 31
0.0
  0
LINE
  5
320
330
1F
100
AcDbEntity
  8
0
  6
Continuous
 62
     7
370
    30
100
AcDbLine
 10
4.5258916638
 20
4.3550290356
 30
0.0
 11
4.5963916093
 21
4.3550290356
 31
0.0
  0
LINE
  5
321
330
1F
100
AcDbEntity
  8
0
  6
Continuous
 62
     7
370
    30
100
AcDbLine
 10
4.4553915715
 20
4.3550290356
 30
0.0
 11
4.5258916638
 21
4.3550290356
 31
0.0
  0
LINE
  5
322
330
1F
100
AcDbEntity
  8
0
  6
Continuous
 62
     7
370
    30
100
AcDbLine
 10
4.5258916638
 20
4.3691741022
 30
0.0
 11
4.6208916263
 21
4.3691741022
 31
0.0
  0
LINE
  5
323
330
1F
100
AcDbEntity
  8
0
  6
Continuous
 62
     7
370
    30
100
AcDbLine
 10
4.4308916279
 20
4.3691741022
 30
0.0
 11
4.5258916638
 21
4.3691741022
 31
0.0
  0
LINE
  5
324
330
1F
100
AcDbEntity
  8
0
  6
Continuous
 62
     7
370
    30
100
AcDbLine
 10
4.5258916638
 20
3.6883623403
 30
0.0
 11
4.5963916093
 21
3.6883623403
 31
0.0
  0
LINE
  5
325
330
1F
100
AcDbEntity
  8
0
  6
Continuous
 62
     7
370
    30
100
AcDbLine
 10
4.4553915715
 20
3.6883623403
 30
0.0
 11
4.5258916638
 21
3.6883623403
 31
0.0
  0
LINE
  5
326
330
1F
100
AcDbEntity
  8
0
  6
Continuous
 62
     7
370
    30
100
AcDbLine
 10
4.5258916638
 20
3.7025074435
 30
0.0
 11
4.6208916263
 21
3.7025074435
 31
0.0
  0
LINE
  5
327
330
1F
100
AcDbEntity
  8
0
  6
Continuous
 62
     7
370
    30
100
AcDbLine
 10
4.4308916279
 20
3.7025074435
 30
0.0
 11
4.5258916638
 21
3.7025074435
 31
0.0
  0
LINE
  5
328
330
1F
100
AcDbEntity
  8
0
  6
Continuous
 62
     7
370
    30
100
AcDbLine
 10
4.5258916638
 20
3.9802852546
 30
0.0
 11
4.6208916263
 21
3.9802852546
 31
0.0
  0
LINE
  5
329
330
1F
100
AcDbEntity
  8
0
  6
Continuous
 62
     7
370
    30
100
AcDbLine
 10
4.4308916279
 20
3.9802852546
 30
0.0
 11
4.5258916638
 21
3.9802852546
 31
0.0
  0
LINE
  5
32A
330
1F
100
AcDbEntity
  8
0
  6
Continuous
 62
     7
370
    30
100
AcDbLine
 10
4.5963916093
 20
3.9944302846
 30
0.0
 11
4.4553915715
 21
3.9944302846
 31
0.0
  0
LINE
  5
32B
330
1F
100
AcDbEntity
  8
0
  6
Continuous
 62
     7
370
    30
100
AcDbLine
 10
4.5258916638
 20
3.9661401514
 30
0.0
 11
4.5963916093
 21
3.9661401514
 31
0.0
  0
LINE
  5
32C
330
1F
100
AcDbEntity
  8
0
  6
Continuous
 62
     7
370
    30
100
AcDbLine
 10
4.4553915715
 20
3.9661401514
 30
0.0
 11
4.5258916638
 21
3.9661401514
 31
0.0
  0
LINE
  5
32D
330
1F
100
AcDbEntity
  8
0
  6
Continuous
 62
     7
370
    30
100
AcDbLine
 10
4.5258916638
 20
3.7994734501
 30
0.0
 11
4.5963916093
 21
3.7994734501
 31
0.0
  0
LINE
  5
32E
330
1F
100
AcDbEntity
  8
0
  6
Continuous
 62
     7
370
    30
100
AcDbLine
 10
4.4553915715
 20
3.7994734501
 30
0.0
 11
4.5258916638
 21
3.7994734501
 31
0.0
  0
LINE
  5
32F
330
1F
100
AcDbEntity
  8
0
  6
Continuous
 62
     7
370
    30
100
AcDbLine
 10
4.5258916638
 20
3.8136185533
 30
0.0
 11
4.6208916263
 21
3.8136185533
 31
0.0
  0
LINE
  5
330
330
1F
100
AcDbEntity
  8
0
  6
Continuous
 62
     7
370
    30
100
AcDbLine
 10
4.4308916279
 20
3.8136185533
 30
0.0
 11
4.5258916638
 21
3.8136185533
 31
0.0
  0
LINE
  5
331
330
1F
100
AcDbEntity
  8
0
  6
Continuous
 62
     7
370
    30
100
AcDbLine
 10
4.5258916638
 20
3.8550290416
 30
0.0
 11
4.5963916093
 21
3.8550290416
 31
0.0
  0
LINE
  5
332
330
1F
100
AcDbEntity
  8
0
  6
Continuous
 62
     7
370
    30
100
AcDbLine
 10
4.4553915715
 20
3.8550290416
 30
0.0
 11
4.5258916638
 21
3.8550290416
 31
0.0
  0
LINE
  5
333
330
1F
100
AcDbEntity
  8
0
  6
Continuous
 62
     7
370
    30
100
AcDbLine
 10
4.5258916638
 20
3.8691741449
 30
0.0
 11
4.6208916263
 21
3.8691741449
 31
0.0
  0
LINE
  5
334
330
1F
100
AcDbEntity
  8
0
  6
Continuous
 62
     7
370
    30
100
AcDbLine
 10
4.4308916279
 20
3.8691741449
 30
0.0
 11
4.5258916638
 21
3.8691741449
 31
0.0
  0
LINE
  5
335
330
1F
100
AcDbEntity
  8
0
  6
Continuous
 62
     7
370
    30
100
AcDbLine
 10
4.5258916638
 20
4.4802852119
 30
0.0
 11
4.6208916263
 21
4.4802852119
 31
0.0
  0
LINE
  5
336
330
1F
100
AcDbEntity
  8
0
  6
Continuous
 62
     7
370
    30
100
AcDbLine
 10
4.4308916279
 20
4.4802852119
 30
0.0
 11
4.5258916638
 21
4.4802852119
 31
0.0
  0
LINE
  5
337
330
1F
100
AcDbEntity
  8
0
  6
Continuous
 62
     7
370
    30
100
AcDbLine
 10
4.5963916093
 20
4.4944302969
 30
0.0
 11
4.4553915715
 21
4.4944302969
 31
0.0
  0
LINE
  5
338
330
1F
100
AcDbEntity
  8
0
  6
Continuous
 62
     7
370
    30
100
AcDbLine
 10
4.5258916638
 20
3.7580629618
 30
0.0
 11
4.6208916263
 21
3.7580629618
 31
0.0
  0
LINE
  5
339
330
1F
100
AcDbEntity
  8
0
  6
Continuous
 62
     7
370
    30
100
AcDbLine
 10
4.4308916279
 20
3.7580629618
 30
0.0
 11
4.5258916638
 21
3.7580629618
 31
0.0
  0
LINE
  5
33A
330
1F
100
AcDbEntity
  8
0
  6
Continuous
 62
     7
370
    30
100
AcDbLine
 10
4.5963916093
 20
3.772208065
 30
0.0
 11
4.4553915715
 21
3.772208065
 31
0.0
  0
LINE
  5
33B
330
1F
100
AcDbEntity
  8
0
  6
Continuous
 62
     7
370
    30
100
AcDbLine
 10
4.5963916093
 20
4.3833191871
 30
0.0
 11
4.4553915715
 21
4.3833191871
 31
0.0
  0
LINE
  5
33C
330
1F
100
AcDbEntity
  8
0
  6
Continuous
 62
     7
370
    30
100
AcDbLine
 10
4.5963916093
 20
3.7166525468
 30
0.0
 11
4.4553915715
 21
3.7166525468
 31
0.0
  0
LINE
  5
33D
330
1F
100
AcDbEntity
  8
0
  6
Continuous
 62
     7
370
    30
100
AcDbLine
 10
4.5258916638
 20
3.9247296631
 30
0.0
 11
4.6208916263
 21
3.9247296631
 31
0.0
  0
LINE
  5
33E
330
1F
100
AcDbEntity
  8
0
  6
Continuous
 62
     7
370
    30
100
AcDbLine
 10
4.4308916279
 20
3.9247296631
 30
0.0
 11
4.5258916638
 21
3.9247296631
 31
0.0
  0
LINE
  5
33F
330
1F
100
AcDbEntity
  8
0
  6
Continuous
 62
     7
370
    30
100
AcDbLine
 10
4.5963916093
 20
3.9388747663
 30
0.0
 11
4.4553915715
 21
3.9388747663
 31
0.0
  0
LINE
  5
340
330
1F
100
AcDbEntity
  8
0
  6
Continuous
 62
     7
370
    30
100
AcDbLine
 10
4.5963916093
 20
3.8833191748
 30
0.0
 11
4.4553915715
 21
3.8833191748
 31
0.0
  0
LINE
  5
341
330
1F
100
AcDbEntity
  8
0
  6
Continuous
 62
     7
370
    30
100
AcDbLine
 10
4.5963916093
 20
3.8277636566
 30
0.0
 11
4.4553915715
 21
3.8277636566
 31
0.0
  0
LINE
  5
342
330
1F
100
AcDbEntity
  8
0
  6
Continuous
 62
     7
370
    30
100
AcDbLine
 10
4.5258916638
 20
4.535840776
 30
0.0
 11
4.6208916263
 21
4.535840776
 31
0.0
  0
LINE
  5
343
330
1F
100
AcDbEntity
  8
0
  6
Continuous
 62
     7
370
    30
100
AcDbLine
 10
4.4308916279
 20
4.535840776
 30
0.0
 11
4.5258916638
 21
4.535840776
 31
0.0
  0
LINE
  5
344
330
1F
100
AcDbEntity
  8
0
  6
Continuous
 62
     7
370
    30
100
AcDbLine
 10
4.5963916093
 20
4.5499858609
 30
0.0
 11
4.4553915715
 21
4.5499858609
 31
0.0
  0
LINE
  5
345
330
1F
100
AcDbEntity
  8
0
  6
Continuous
 62
     7
370
    30
100
AcDbLine
 10
4.5258916638
 20
4.4105845904
 30
0.0
 11
4.5963916093
 21
4.4105845904
 31
0.0
  0
LINE
  5
346
330
1F
100
AcDbEntity
  8
0
  6
Continuous
 62
     7
370
    30
100
AcDbLine
 10
4.4553915715
 20
4.4105845904
 30
0.0
 11
4.5258916638
 21
4.4105845904
 31
0.0
  0
LINE
  5
347
330
1F
100
AcDbEntity
  8
0
  6
Continuous
 62
     7
370
    30
100
AcDbLine
 10
4.5258916638
 20
4.424729657
 30
0.0
 11
4.6208916263
 21
4.424729657
 31
0.0
  0
LINE
  5
348
330
1F
100
AcDbEntity
  8
0
  6
Continuous
 62
     7
370
    30
100
AcDbLine
 10
4.4308916279
 20
4.424729657
 30
0.0
 11
4.5258916638
 21
4.424729657
 31
0.0
  0
LINE
  5
349
330
1F
100
AcDbEntity
  8
0
  6
Continuous
 62
     7
370
    30
100
AcDbLine
 10
4.5258916638
 20
4.521695691
 30
0.0
 11
4.5963916093
 21
4.521695691
 31
0.0
  0
LINE
  5
34A
330
1F
100
AcDbEntity
  8
0
  6
Continuous
 62
     7
370
    30
100
AcDbLine
 10
4.4553915715
 20
4.521695691
 30
0.0
 11
4.5258916638
 21
4.521695691
 31
0.0
  0
LINE
  5
34B
330
1F
100
AcDbEntity
  8
0
  6
Continuous
 62
     7
370
    30
100
AcDbLine
 10
4.5258916638
 20
3.9105845598
 30
0.0
 11
4.5963916093
 21
3.9105845598
 31
0.0
  0
LINE
  5
34C
330
1F
100
AcDbEntity
  8
0
  6
Continuous
 62
     7
370
    30
100
AcDbLine
 10
4.4553915715
 20
3.9105845598
 30
0.0
 11
4.5258916638
 21
3.9105845598
 31
0.0
  0
LINE
  5
34D
330
1F
100
AcDbEntity
  8
0
  6
Continuous
 62
     7
370
    30
100
AcDbLine
 10
4.5258916638
 20
3.7439179318
 30
0.0
 11
4.5963916093
 21
3.7439179318
 31
0.0
  0
LINE
  5
34E
330
1F
100
AcDbEntity
  8
0
  6
Continuous
 62
     7
370
    30
100
AcDbLine
 10
4.4553915715
 20
3.7439179318
 30
0.0
 11
4.5258916638
 21
3.7439179318
 31
0.0
  0
LINE
  5
34F
330
1F
100
AcDbEntity
  8
0
  6
Continuous
 62
     7
370
    30
100
AcDbLine
 10
4.5963916093
 20
4.438874742
 30
0.0
 11
4.4553915715
 21
4.438874742
 31
0.0
  0
LINE
  5
350
330
1F
100
AcDbEntity
  8
0
  6
Continuous
 62
     7
370
    30
100
AcDbLine
 10
4.5258916638
 20
4.4661401453
 30
0.0
 11
4.5963916093
 21
4.4661401453
 31
0.0
  0
LINE
  5
351
330
1F
100
AcDbEntity
  8
0
  6
Continuous
 62
     7
370
    30
100
AcDbLine
 10
4.4553915715
 20
4.4661401453
 30
0.0
 11
4.5258916638
 21
4.4661401453
 31
0.0
  0
LINE
  5
352
330
1F
100
AcDbEntity
  8
0
  6
Continuous
 62
     7
370
    30
100
AcDbLine
 10
4.5258916638
 20
2.4838206686
 30
0.0
 11
4.5963916093
 21
2.4838206686
 31
0.0
  0
LINE
  5
353
330
1F
100
AcDbEntity
  8
0
  6
Continuous
 62
     7
370
    30
100
AcDbLine
 10
4.4553915715
 20
2.4838206686
 30
0.0
 11
4.5258916638
 21
2.4838206686
 31
0.0
  0
LINE
  5
354
330
1F
100
AcDbEntity
  8
0
  6
Continuous
 62
     7
370
    30
100
AcDbLine
 10
3.1821416135
 20
2.8019213005
 30
0.0
 11
3.1821416135
 21
2.770921312
 31
0.0
  0
LINE
  5
355
330
1F
100
AcDbEntity
  8
0
  6
Continuous
 62
     7
370
    30
100
AcDbLine
 10
8.4321416051
 20
2.8019213005
 30
0.0
 11
3.1821416135
 21
2.8019213005
 31
0.0
  0
LINE
  5
356
330
1F
100
AcDbEntity
  8
0
  6
Continuous
 62
     7
370
    30
100
AcDbLine
 10
8.4321416051
 20
2.770921312
 30
0.0
 11
8.4321416051
 21
2.8019213005
 31
0.0
  0
LINE
  5
357
330
1F
100
AcDbEntity
  8
0
  6
Continuous
 62
     7
370
    30
100
AcDbLine
 10
3.1821416135
 20
2.8019213005
 30
0.0
 11
3.1821416135
 21
3.172921348
 31
0.0
  0
LINE
  5
358
330
1F
100
AcDbEntity
  8
0
  6
Continuous
 62
     7
370
    30
100
AcDbLine
 10
8.4321416051
 20
3.172921348
 30
0.0
 11
3.1821416135
 21
3.172921348
 31
0.0
  0
LINE
  5
359
330
1F
100
AcDbEntity
  8
0
  6
Continuous
 62
     7
370
    30
100
AcDbLine
 10
8.4321416051
 20
2.8019213005
 30
0.0
 11
8.4321416051
 21
3.172921348
 31
0.0
  0
LINE
  5
35A
330
1F
100
AcDbEntity
  8
0
  6
Continuous
 62
     7
370
    30
100
AcDbLine
 10
8.4321416051
 20
3.172921348
 30
0.0
 11
8.4321416051
 21
3.2039213366
 31
0.0
  0
LINE
  5
35B
330
1F
100
AcDbEntity
  8
0
  6
Continuous
 62
     7
370
    30
100
AcDbLine
 10
3.1821416135
 20
3.2039213366
 30
0.0
 11
3.1821416135
 21
3.172921348
 31
0.0
  0
LINE
  5
35C
330
1F
100
AcDbEntity
  8
0
  6
Continuous
 62
     7
370
    30
100
AcDbLine
 10
8.6921416415
 20
5.8949946357
 30
0.0
 11
8.8071416464
 21
5.8949946357
 31
0.0
  0
LINE
  5
35D
330
1F
100
AcDbEntity
  8
0
  6
Continuous
 62
     7
370
    30
100
AcDbLine
 10
9.557141729
 20
5.0749945885
 30
0.0
 11
9.557141729
 21
5.1449945898
 31
0.0
  0
LINE
  5
35E
330
1F
100
AcDbEntity
  8
0
  6
Continuous
 62
     7
370
    30
100
AcDbLine
 10
8.7851416072
 20
4.3169945916
 30
0.0
 11
8.7851416072
 21
5.0749945885
 31
0.0
  0
LINE
  5
35F
330
1F
100
AcDbEntity
  8
0
  6
Continuous
 62
     7
370
    30
100
AcDbLine
 10
8.7851416072
 20
5.0749945885
 30
0.0
 11
9.557141729
 21
5.0749945885
 31
0.0
  0
LINE
  5
360
330
1F
100
AcDbEntity
  8
0
  6
Continuous
 62
     7
370
    30
100
AcDbLine
 10
9.557141729
 20
5.1449945898
 30
0.0
 11
8.8071416464
 21
5.1449945898
 31
0.0
  0
LINE
  5
361
330
1F
100
AcDbEntity
  8
0
  6
Continuous
 62
     7
370
    30
100
AcDbLine
 10
8.8071416464
 20
5.1449945898
 30
0.0
 11
8.8071416464
 21
5.8949946357
 31
0.0
  0
LINE
  5
362
330
1F
100
AcDbEntity
  8
0
  6
Continuous
 62
     7
370
    30
100
AcDbLine
 10
8.6921416415
 20
5.8949946357
 30
0.0
 11
8.6921416415
 21
5.707994596
 31
0.0
  0
LINE
  5
363
330
1F
100
AcDbEntity
  8
0
  6
Continuous
 62
     7
370
    30
100
AcDbLine
 10
8.6921416415
 20
5.707994596
 30
0.0
 11
8.5901417265
 21
5.707994596
 31
0.0
  0
LINE
  5
364
330
1F
100
AcDbEntity
  8
0
  6
Continuous
 62
     7
370
    30
100
AcDbLine
 10
8.5901417265
 20
5.707994596
 30
0.0
 11
8.5901417265
 21
5.5829946067
 31
0.0
  0
LINE
  5
365
330
1F
100
AcDbEntity
  8
0
  6
Continuous
 62
     7
370
    30
100
AcDbLine
 10
8.5901417265
 20
5.5829946067
 30
0.0
 11
8.6521417036
 21
5.5829946067
 31
0.0
  0
LINE
  5
366
330
1F
100
AcDbEntity
  8
0
  6
Continuous
 62
     7
370
    30
100
AcDbLine
 10
8.6521417036
 20
5.5829946067
 30
0.0
 11
8.6521417036
 21
5.6449945838
 31
0.0
  0
LINE
  5
367
330
1F
100
AcDbEntity
  8
0
  6
Continuous
 62
     7
370
    30
100
AcDbLine
 10
8.6521417036
 20
5.6449945838
 30
0.0
 11
8.7141416807
 21
5.6449945838
 31
0.0
  0
LINE
  5
368
330
1F
100
AcDbEntity
  8
0
  6
Continuous
 62
     7
370
    30
100
AcDbLine
 10
8.7141416807
 20
5.6449945838
 30
0.0
 11
8.7141416807
 21
5.1379946007
 31
0.0
  0
LINE
  5
369
330
1F
100
AcDbEntity
  8
0
  6
Continuous
 62
     7
370
    30
100
AcDbLine
 10
8.7141416807
 20
5.1379946007
 30
0.0
 11
8.6521417036
 21
5.1379946007
 31
0.0
  0
LINE
  5
36A
330
1F
100
AcDbEntity
  8
0
  6
Continuous
 62
     7
370
    30
100
AcDbLine
 10
8.6521417036
 20
5.1379946007
 30
0.0
 11
8.6521417036
 21
5.1999945778
 31
0.0
  0
LINE
  5
36B
330
1F
100
AcDbEntity
  8
0
  6
Continuous
 62
     7
370
    30
100
AcDbLine
 10
8.6521417036
 20
5.1999945778
 30
0.0
 11
8.5901417265
 21
5.1999945778
 31
0.0
  0
LINE
  5
36C
330
1F
100
AcDbEntity
  8
0
  6
Continuous
 62
     7
370
    30
100
AcDbLine
 10
8.5901417265
 20
5.1999945778
 30
0.0
 11
8.5901417265
 21
5.0749945885
 31
0.0
  0
LINE
  5
36D
330
1F
100
AcDbEntity
  8
0
  6
Continuous
 62
     7
370
    30
100
AcDbLine
 10
8.5901417265
 20
5.0749945885
 30
0.0
 11
8.6921416415
 21
5.0749945885
 31
0.0
  0
LINE
  5
36E
330
1F
100
AcDbEntity
  8
0
  6
Continuous
 62
     7
370
    30
100
AcDbLine
 10
8.6921416415
 20
5.0749945885
 30
0.0
 11
8.6921416415
 21
4.5669945978
 31
0.0
  0
LINE
  5
36F
330
1F
100
AcDbEntity
  8
0
  6
Continuous
 62
     7
370
    30
100
AcDbLine
 10
8.6921416415
 20
4.5669945978
 30
0.0
 11
8.6651415001
 21
4.3169945916
 31
0.0
  0
LINE
  5
370
330
1F
100
AcDbEntity
  8
0
  6
Continuous
 62
     7
370
    30
100
AcDbLine
 10
8.6651415001
 20
4.3169945916
 30
0.0
 11
8.7851416072
 21
4.3169945916
 31
0.0
  0
LINE
  5
371
330
1F
100
AcDbEntity
  8
0
  6
Continuous
 62
     7
370
    30
100
AcDbLine
 10
2.8291416114
 20
4.3169945916
 30
0.0
 11
2.9491417185
 21
4.3169945916
 31
0.0
  0
LINE
  5
372
330
1F
100
AcDbEntity
  8
0
  6
Continuous
 62
     7
370
    30
100
AcDbLine
 10
2.0571414896
 20
5.0749945885
 30
0.0
 11
2.0571414896
 21
5.1449945898
 31
0.0
  0
LINE
  5
373
330
1F
100
AcDbEntity
  8
0
  6
Continuous
 62
     7
370
    30
100
AcDbLine
 10
2.8071415722
 20
5.8949946357
 30
0.0
 11
2.9221415771
 21
5.8949946357
 31
0.0
  0
LINE
  5
374
330
1F
100
AcDbEntity
  8
0
  6
Continuous
 62
     7
370
    30
100
AcDbLine
 10
2.8291416114
 20
5.0749945885
 30
0.0
 11
2.8291416114
 21
4.3169945916
 31
0.0
  0
LINE
  5
375
330
1F
100
AcDbEntity
  8
0
  6
Continuous
 62
     7
370
    30
100
AcDbLine
 10
2.0571414896
 20
5.0749945885
 30
0.0
 11
2.8291416114
 21
5.0749945885
 31
0.0
  0
LINE
  5
376
330
1F
100
AcDbEntity
  8
0
  6
Continuous
 62
     7
370
    30
100
AcDbLine
 10
2.8071415722
 20
5.1449945898
 30
0.0
 11
2.0571414896
 21
5.1449945898
 31
0.0
  0
LINE
  5
377
330
1F
100
AcDbEntity
  8
0
  6
Continuous
 62
     7
370
    30
100
AcDbLine
 10
2.8071415722
 20
5.8949946357
 30
0.0
 11
2.8071415722
 21
5.1449945898
 31
0.0
  0
LINE
  5
378
330
1F
100
AcDbEntity
  8
0
  6
Continuous
 62
     7
370
    30
100
AcDbLine
 10
2.9221415771
 20
5.707994596
 30
0.0
 11
2.9221415771
 21
5.8949946357
 31
0.0
  0
LINE
  5
379
330
1F
100
AcDbEntity
  8
0
  6
Continuous
 62
     7
370
    30
100
AcDbLine
 10
3.0241414921
 20
5.707994596
 30
0.0
 11
2.9221415771
 21
5.707994596
 31
0.0
  0
LINE
  5
37A
330
1F
100
AcDbEntity
  8
0
  6
Continuous
 62
     7
370
    30
100
AcDbLine
 10
3.0241414921
 20
5.5829946067
 30
0.0
 11
3.0241414921
 21
5.707994596
 31
0.0
  0
LINE
  5
37B
330
1F
100
AcDbEntity
  8
0
  6
Continuous
 62
     7
370
    30
100
AcDbLine
 10
2.962141515
 20
5.5829946067
 30
0.0
 11
3.0241414921
 21
5.5829946067
 31
0.0
  0
LINE
  5
37C
330
1F
100
AcDbEntity
  8
0
  6
Continuous
 62
     7
370
    30
100
AcDbLine
 10
2.962141515
 20
5.6449945838
 30
0.0
 11
2.962141515
 21
5.5829946067
 31
0.0
  0
LINE
  5
37D
330
1F
100
AcDbEntity
  8
0
  6
Continuous
 62
     7
370
    30
100
AcDbLine
 10
2.9001415379
 20
5.6449945838
 30
0.0
 11
2.962141515
 21
5.6449945838
 31
0.0
  0
LINE
  5
37E
330
1F
100
AcDbEntity
  8
0
  6
Continuous
 62
     7
370
    30
100
AcDbLine
 10
2.9001415379
 20
5.1379946007
 30
0.0
 11
2.9001415379
 21
5.6449945838
 31
0.0
  0
LINE
  5
37F
330
1F
100
AcDbEntity
  8
0
  6
Continuous
 62
     7
370
    30
100
AcDbLine
 10
2.962141515
 20
5.1379946007
 30
0.0
 11
2.9001415379
 21
5.1379946007
 31
0.0
  0
LINE
  5
380
330
1F
100
AcDbEntity
  8
0
  6
Continuous
 62
     7
370
    30
100
AcDbLine
 10
2.962141515
 20
5.1999945778
 30
0.0
 11
2.962141515
 21
5.1379946007
 31
0.0
  0
LINE
  5
381
330
1F
100
AcDbEntity
  8
0
  6
Continuous
 62
     7
370
    30
100
AcDbLine
 10
3.0241414921
 20
5.1999945778
 30
0.0
 11
2.962141515
 21
5.1999945778
 31
0.0
  0
LINE
  5
382
330
1F
100
AcDbEntity
  8
0
  6
Continuous
 62
     7
370
    30
100
AcDbLine
 10
3.0241414921
 20
5.0749945885
 30
0.0
 11
3.0241414921
 21
5.1999945778
 31
0.0
  0
LINE
  5
383
330
1F
100
AcDbEntity
  8
0
  6
Continuous
 62
     7
370
    30
100
AcDbLine
 10
2.9221415771
 20
5.0749945885
 30
0.0
 11
3.0241414921
 21
5.0749945885
 31
0.0
  0
LINE
  5
384
330
1F
100
AcDbEntity
  8
0
  6
Continuous
 62
     7
370
    30
100
AcDbLine
 10
2.9221415771
 20
4.5669945978
 30
0.0
 11
2.9221415771
 21
5.0749945885
 31
0.0
  0
LINE
  5
385
330
1F
100
AcDbEntity
  8
0
  6
Continuous
 62
     7
370
    30
100
AcDbLine
 10
2.9491417185
 20
4.3169945916
 30
0.0
 11
2.9221415771
 21
4.5669945978
 31
0.0
  0
LINE
  5
386
330
1F
100
AcDbEntity
  8
0
  6
Continuous
 62
     7
370
    30
100
AcDbLine
 10
8.1195165632
 20
5.8068685671
 30
0.0
 11
8.1195165632
 21
5.8538685308
 31
0.0
  0
ARC
  5
387
330
1F
100
AcDbEntity
  8
0
  6
Continuous
 62
     7
370
    30
100
AcDbCircle
 10
8.2280166093
 20
5.7447980284
 30
0.0
 40
0.1250000000000003
100
AcDbArc
 50
150.2270518686
 51
180.0
  0
LINE
  5
388
330
1F
100
AcDbEntity
  8
0
  6
Continuous
 62
     7
370
    30
100
AcDbLine
 10
8.1030166072
 20
5.2538685454
 30
0.0
 11
8.1030166072
 21
5.7447980442
 31
0.0
  0
ARC
  5
389
330
1F
100
AcDbEntity
  8
0
  6
Continuous
 62
     7
370
    30
100
AcDbCircle
 10
8.0930166093
 20
5.2538685528
 30
0.0
 40
0.0099999999999998
100
AcDbArc
 50
270.0
 51
0.0
  0
LINE
  5
38A
330
1F
100
AcDbEntity
  8
0
  6
Continuous
 62
     7
370
    30
100
AcDbLine
 10
8.0210166611
 20
5.2438685609
 30
0.0
 11
8.0930165494
 21
5.2438685609
 31
0.0
  0
ARC
  5
38B
330
1F
100
AcDbEntity
  8
0
  6
Continuous
 62
     7
370
    30
100
AcDbCircle
 10
8.0210166093
 20
5.2538685528
 30
0.0
 40
0.0099999999999998
100
AcDbArc
 50
180.0
 51
270.0
  0
LINE
  5
38C
330
1F
100
AcDbEntity
  8
0
  6
Continuous
 62
     7
370
    30
100
AcDbLine
 10
8.0110166033
 20
5.7447980442
 30
0.0
 11
8.0110166033
 21
5.2538685454
 31
0.0
  0
ARC
  5
38D
330
1F
100
AcDbEntity
  8
0
  6
Continuous
 62
     7
370
    30
100
AcDbCircle
 10
7.8860166093
 20
5.7447980284
 30
0.0
 40
0.1250000000000003
100
AcDbArc
 50
0.0
 51
29.7729481314
  0
LINE
  5
38E
330
1F
100
AcDbEntity
  8
0
  6
Continuous
 62
     7
370
    30
100
AcDbLine
 10
7.9945166472
 20
5.8538685308
 30
0.0
 11
7.9945166472
 21
5.8068685671
 31
0.0
  0
ARC
  5
38F
330
1F
100
AcDbEntity
  8
0
  6
Continuous
 62
     7
370
    30
100
AcDbCircle
 10
8.0095166093
 20
5.8538685528
 30
0.0
 40
0.0149999999999997
100
AcDbArc
 50
90.0
 51
180.0
  0
LINE
  5
390
330
1F
100
AcDbEntity
  8
0
  6
Continuous
 62
     7
370
    30
100
AcDbLine
 10
8.1045165498
 20
5.8688685442
 30
0.0
 11
8.0095166606
 21
5.8688685442
 31
0.0
  0
ARC
  5
391
330
1F
100
AcDbEntity
  8
0
  6
Continuous
 62
     7
370
    30
100
AcDbCircle
 10
8.1045166093
 20
5.8538685528
 30
0.0
 40
0.0150000000000006
100
AcDbArc
 50
0.0
 51
90.0
  0
LINE
  5
392
330
1F
100
AcDbEntity
  8
0
  6
Continuous
 62
     7
370
    30
100
AcDbLine
 10
7.6195166059
 20
5.8068685671
 30
0.0
 11
7.6195166059
 21
5.8538685308
 31
0.0
  0
ARC
  5
393
330
1F
100
AcDbEntity
  8
0
  6
Continuous
 62
     7
370
    30
100
AcDbCircle
 10
7.7280166093
 20
5.7447980284
 30
0.0
 40
0.1250000000000003
100
AcDbArc
 50
150.2270518686
 51
180.0
  0
LINE
  5
394
330
1F
100
AcDbEntity
  8
0
  6
Continuous
 62
     7
370
    30
100
AcDbLine
 10
7.6030166499
 20
5.2538685454
 30
0.0
 11
7.6030166499
 21
5.7447980442
 31
0.0
  0
ARC
  5
395
330
1F
100
AcDbEntity
  8
0
  6
Continuous
 62
     7
370
    30
100
AcDbCircle
 10
7.5930166093
 20
5.2538685528
 30
0.0
 40
0.0100000000000007
100
AcDbArc
 50
270.0
 51
0.0
  0
LINE
  5
396
330
1F
100
AcDbEntity
  8
0
  6
Continuous
 62
     7
370
    30
100
AcDbLine
 10
7.5210165571
 20
5.2438685609
 30
0.0
 11
7.5930165921
 21
5.2438685609
 31
0.0
  0
ARC
  5
397
330
1F
100
AcDbEntity
  8
0
  6
Continuous
 62
     7
370
    30
100
AcDbCircle
 10
7.5210166093
 20
5.2538685528
 30
0.0
 40
0.0100000000000007
100
AcDbArc
 50
180.0
 51
270.0
  0
LINE
  5
398
330
1F
100
AcDbEntity
  8
0
  6
Continuous
 62
     7
370
    30
100
AcDbLine
 10
7.511016646
 20
5.7447980442
 30
0.0
 11
7.511016646
 21
5.2538685454
 31
0.0
  0
ARC
  5
399
330
1F
100
AcDbEntity
  8
0
  6
Continuous
 62
     7
370
    30
100
AcDbCircle
 10
7.3860166093
 20
5.7447980284
 30
0.0
 40
0.1250000000000003
100
AcDbArc
 50
0.0
 51
29.7729481314
  0
LINE
  5
39A
330
1F
100
AcDbEntity
  8
0
  6
Continuous
 62
     7
370
    30
100
AcDbLine
 10
7.4945165433
 20
5.8538685308
 30
0.0
 11
7.4945165433
 21
5.8068685671
 31
0.0
  0
ARC
  5
39B
330
1F
100
AcDbEntity
  8
0
  6
Continuous
 62
     7
370
    30
100
AcDbCircle
 10
7.5095166093
 20
5.8538685528
 30
0.0
 40
0.0149999999999997
100
AcDbArc
 50
90.0
 51
180.0
  0
LINE
  5
39C
330
1F
100
AcDbEntity
  8
0
  6
Continuous
 62
     7
370
    30
100
AcDbLine
 10
7.6045165926
 20
5.8688685442
 30
0.0
 11
7.5095165567
 21
5.8688685442
 31
0.0
  0
ARC
  5
39D
330
1F
100
AcDbEntity
  8
0
  6
Continuous
 62
     7
370
    30
100
AcDbCircle
 10
7.6045166093
 20
5.8538685528
 30
0.0
 40
0.0149999999999997
100
AcDbArc
 50
0.0
 51
90.0
  0
LINE
  5
39E
330
1F
100
AcDbEntity
  8
0
  6
Continuous
 62
     7
370
    30
100
AcDbLine
 10
7.1195166486
 20
5.8068685671
 30
0.0
 11
7.1195166486
 21
5.8538685308
 31
0.0
  0
ARC
  5
39F
330
1F
100
AcDbEntity
  8
0
  6
Continuous
 62
     7
370
    30
100
AcDbCircle
 10
7.2280166093
 20
5.7447980284
 30
0.0
 40
0.1250000000000003
100
AcDbArc
 50
150.2270518686
 51
180.0
  0
LINE
  5
3A0
330
1F
100
AcDbEntity
  8
0
  6
Continuous
 62
     7
370
    30
100
AcDbLine
 10
7.1030165459
 20
5.2538685454
 30
0.0
 11
7.1030165459
 21
5.7447980442
 31
0.0
  0
ARC
  5
3A1
330
1F
100
AcDbEntity
  8
0
  6
Continuous
 62
     7
370
    30
100
AcDbCircle
 10
7.0930166093
 20
5.2538685528
 30
0.0
 40
0.0099999999999998
100
AcDbArc
 50
270.0
 51
0.0
  0
ARC
  5
3A2
330
1F
100
AcDbEntity
  8
0
  6
Continuous
 62
     7
370
    30
100
AcDbCircle
 10
7.0210166093
 20
5.2538685528
 30
0.0
 40
0.0099999999999998
100
AcDbArc
 50
180.0
 51
270.0
  0
LINE
  5
3A3
330
1F
100
AcDbEntity
  8
0
  6
Continuous
 62
     7
370
    30
100
AcDbLine
 10
7.0110166154
 20
5.7447980442
 30
0.0
 11
7.0110166154
 21
5.2538685454
 31
0.0
  0
ARC
  5
3A4
330
1F
100
AcDbEntity
  8
0
  6
Continuous
 62
     7
370
    30
100
AcDbCircle
 10
6.8860166093
 20
5.7447980284
 30
0.0
 40
0.125000000000001
100
AcDbArc
 50
0.0
 51
29.7729481314
  0
LINE
  5
3A5
330
1F
100
AcDbEntity
  8
0
  6
Continuous
 62
     7
370
    30
100
AcDbLine
 10
6.994516586
 20
5.8538685308
 30
0.0
 11
6.994516586
 21
5.8068685671
 31
0.0
  0
ARC
  5
3A6
330
1F
100
AcDbEntity
  8
0
  6
Continuous
 62
     7
370
    30
100
AcDbCircle
 10
7.0095166093
 20
5.8538685528
 30
0.0
 40
0.0149999999999997
100
AcDbArc
 50
90.0
 51
180.0
  0
LINE
  5
3A7
330
1F
100
AcDbEntity
  8
0
  6
Continuous
 62
     7
370
    30
100
AcDbLine
 10
7.1045166353
 20
5.8688685442
 30
0.0
 11
7.0095165994
 21
5.8688685442
 31
0.0
  0
ARC
  5
3A8
330
1F
100
AcDbEntity
  8
0
  6
Continuous
 62
     7
370
    30
100
AcDbCircle
 10
7.1045166093
 20
5.8538685528
 30
0.0
 40
0.0150000000000006
100
AcDbArc
 50
0.0
 51
90.0
  0
LINE
  5
3A9
330
1F
100
AcDbEntity
  8
0
  6
Continuous
 62
     7
370
    30
100
AcDbLine
 10
7.0210165999
 20
5.2438685609
 30
0.0
 11
7.0930166348
 21
5.2438685609
 31
0.0
  0
LINE
  5
3AA
330
1F
100
AcDbEntity
  8
0
  6
Continuous
 62
     7
370
    30
100
AcDbLine
 10
6.619516618
 20
5.8068685671
 30
0.0
 11
6.619516618
 21
5.8538685308
 31
0.0
  0
ARC
  5
3AB
330
1F
100
AcDbEntity
  8
0
  6
Continuous
 62
     7
370
    30
100
AcDbCircle
 10
6.7280166093
 20
5.7447980284
 30
0.0
 40
0.125000000000001
100
AcDbArc
 50
150.2270518686
 51
180.0
  0
LINE
  5
3AC
330
1F
100
AcDbEntity
  8
0
  6
Continuous
 62
     7
370
    30
100
AcDbLine
 10
6.6030165886
 20
5.2538685454
 30
0.0
 11
6.6030165886
 21
5.7447980442
 31
0.0
  0
ARC
  5
3AD
330
1F
100
AcDbEntity
  8
0
  6
Continuous
 62
     7
370
    30
100
AcDbCircle
 10
6.5930166093
 20
5.2538685528
 30
0.0
 40
0.0100000000000007
100
AcDbArc
 50
270.0
 51
0.0
  0
LINE
  5
3AE
330
1F
100
AcDbEntity
  8
0
  6
Continuous
 62
     7
370
    30
100
AcDbLine
 10
6.5210166426
 20
5.2438685609
 30
0.0
 11
6.5930166042
 21
5.2438685609
 31
0.0
  0
ARC
  5
3AF
330
1F
100
AcDbEntity
  8
0
  6
Continuous
 62
     7
370
    30
100
AcDbCircle
 10
6.5210166093
 20
5.2538685528
 30
0.0
 40
0.0100000000000007
100
AcDbArc
 50
180.0
 51
270.0
  0
LINE
  5
3B0
330
1F
100
AcDbEntity
  8
0
  6
Continuous
 62
     7
370
    30
100
AcDbLine
 10
6.5110165848
 20
5.7447980442
 30
0.0
 11
6.5110165848
 21
5.2538685454
 31
0.0
  0
ARC
  5
3B1
330
1F
100
AcDbEntity
  8
0
  6
Continuous
 62
     7
370
    30
100
AcDbCircle
 10
6.3860166093
 20
5.7447980284
 30
0.0
 40
0.1250000000000003
100
AcDbArc
 50
0.0
 51
29.7729481314
  0
LINE
  5
3B2
330
1F
100
AcDbEntity
  8
0
  6
Continuous
 62
     7
370
    30
100
AcDbLine
 10
6.4945166287
 20
5.8538685308
 30
0.0
 11
6.4945166287
 21
5.8068685671
 31
0.0
  0
ARC
  5
3B3
330
1F
100
AcDbEntity
  8
0
  6
Continuous
 62
     7
370
    30
100
AcDbCircle
 10
6.5095166093
 20
5.8538685528
 30
0.0
 40
0.0150000000000006
100
AcDbArc
 50
90.0
 51
180.0
  0
LINE
  5
3B4
330
1F
100
AcDbEntity
  8
0
  6
Continuous
 62
     7
370
    30
100
AcDbLine
 10
6.6045166046
 20
5.8688685442
 30
0.0
 11
6.5095166421
 21
5.8688685442
 31
0.0
  0
ARC
  5
3B5
330
1F
100
AcDbEntity
  8
0
  6
Continuous
 62
     7
370
    30
100
AcDbCircle
 10
6.6045166093
 20
5.8538685528
 30
0.0
 40
0.0149999999999997
100
AcDbArc
 50
0.0
 51
90.0
  0
LINE
  5
3B6
330
1F
100
AcDbEntity
  8
0
  6
Continuous
 62
     7
370
    30
100
AcDbLine
 10
6.1195166241
 20
5.8068685671
 30
0.0
 11
6.1195166241
 21
5.8538685308
 31
0.0
  0
ARC
  5
3B7
330
1F
100
AcDbEntity
  8
0
  6
Continuous
 62
     7
370
    30
100
AcDbCircle
 10
6.2280166093
 20
5.7447980284
 30
0.0
 40
0.125000000000001
100
AcDbArc
 50
150.2270518686
 51
180.0
  0
LINE
  5
3B8
330
1F
100
AcDbEntity
  8
0
  6
Continuous
 62
     7
370
    30
100
AcDbLine
 10
6.103016613
 20
5.2538685454
 30
0.0
 11
6.103016613
 21
5.7447980442
 31
0.0
  0
ARC
  5
3B9
330
1F
100
AcDbEntity
  8
0
  6
Continuous
 62
     7
370
    30
100
AcDbCircle
 10
6.0930166093
 20
5.2538685528
 30
0.0
 40
0.0099999999999998
100
AcDbArc
 50
270.0
 51
0.0
  0
LINE
  5
3BA
330
1F
100
AcDbEntity
  8
0
  6
Continuous
 62
     7
370
    30
100
AcDbLine
 10
6.0210166119
 20
5.2438685609
 30
0.0
 11
6.0930166102
 21
5.2438685609
 31
0.0
  0
ARC
  5
3BB
330
1F
100
AcDbEntity
  8
0
  6
Continuous
 62
     7
370
    30
100
AcDbCircle
 10
6.0210166093
 20
5.2538685528
 30
0.0
 40
0.0099999999999998
100
AcDbArc
 50
180.0
 51
270.0
  0
LINE
  5
3BC
330
1F
100
AcDbEntity
  8
0
  6
Continuous
 62
     7
370
    30
100
AcDbLine
 10
6.0110166091
 20
5.7447980442
 30
0.0
 11
6.0110166091
 21
5.2538685454
 31
0.0
  0
ARC
  5
3BD
330
1F
100
AcDbEntity
  8
0
  6
Continuous
 62
     7
370
    30
100
AcDbCircle
 10
5.8860166093
 20
5.7447980284
 30
0.0
 40
0.125
100
AcDbArc
 50
0.0
 51
29.7729481314
  0
LINE
  5
3BE
330
1F
100
AcDbEntity
  8
0
  6
Continuous
 62
     7
370
    30
100
AcDbLine
 10
5.9945166164
 20
5.8538685308
 30
0.0
 11
5.9945166164
 21
5.8068685671
 31
0.0
  0
ARC
  5
3BF
330
1F
100
AcDbEntity
  8
0
  6
Continuous
 62
     7
370
    30
100
AcDbCircle
 10
6.0095166093
 20
5.8538685528
 30
0.0
 40
0.0150000000000006
100
AcDbArc
 50
90.0
 51
180.0
  0
LINE
  5
3C0
330
1F
100
AcDbEntity
  8
0
  6
Continuous
 62
     7
370
    30
100
AcDbLine
 10
6.1045166107
 20
5.8688685442
 30
0.0
 11
6.0095166115
 21
5.8688685442
 31
0.0
  0
ARC
  5
3C1
330
1F
100
AcDbEntity
  8
0
  6
Continuous
 62
     7
370
    30
100
AcDbCircle
 10
6.1045166093
 20
5.8538685528
 30
0.0
 40
0.0150000000000006
100
AcDbArc
 50
0.0
 51
90.0
  0
LINE
  5
3C2
330
1F
100
AcDbEntity
  8
0
  6
Continuous
 62
     7
370
    30
100
AcDbLine
 10
5.6195166118
 20
5.8068685671
 30
0.0
 11
5.6195166118
 21
5.8538685308
 31
0.0
  0
ARC
  5
3C3
330
1F
100
AcDbEntity
  8
0
  6
Continuous
 62
     7
370
    30
100
AcDbCircle
 10
5.7280166093
 20
5.7447980284
 30
0.0
 40
0.1250000000000003
100
AcDbArc
 50
150.2270518686
 51
180.0
  0
ARC
  5
3C4
330
1F
100
AcDbEntity
  8
0
  6
Continuous
 62
     7
370
    30
100
AcDbCircle
 10
5.5930166093
 20
5.2538685528
 30
0.0
 40
0.0100000000000007
100
AcDbArc
 50
270.0
 51
0.0
  0
LINE
  5
3C5
330
1F
100
AcDbEntity
  8
0
  6
Continuous
 62
     7
370
    30
100
AcDbLine
 10
5.521016618
 20
5.2438685609
 30
0.0
 11
5.5930166162
 21
5.2438685609
 31
0.0
  0
ARC
  5
3C6
330
1F
100
AcDbEntity
  8
0
  6
Continuous
 62
     7
370
    30
100
AcDbCircle
 10
5.5210166093
 20
5.2538685528
 30
0.0
 40
0.0099999999999998
100
AcDbArc
 50
180.0
 51
270.0
  0
LINE
  5
3C7
330
1F
100
AcDbEntity
  8
0
  6
Continuous
 62
     7
370
    30
100
AcDbLine
 10
5.5110166152
 20
5.7447980442
 30
0.0
 11
5.5110166152
 21
5.2538685454
 31
0.0
  0
ARC
  5
3C8
330
1F
100
AcDbEntity
  8
0
  6
Continuous
 62
     7
370
    30
100
AcDbCircle
 10
5.3860166093
 20
5.7447980284
 30
0.0
 40
0.1249999999999994
100
AcDbArc
 50
0.0
 51
29.7729481314
  0
LINE
  5
3C9
330
1F
100
AcDbEntity
  8
0
  6
Continuous
 62
     7
370
    30
100
AcDbLine
 10
5.4945166041
 20
5.8538685308
 30
0.0
 11
5.4945166041
 21
5.8068685671
 31
0.0
  0
ARC
  5
3CA
330
1F
100
AcDbEntity
  8
0
  6
Continuous
 62
     7
370
    30
100
AcDbCircle
 10
5.5095166093
 20
5.8538685528
 30
0.0
 40
0.0150000000000006
100
AcDbArc
 50
90.0
 51
180.0
  0
LINE
  5
3CB
330
1F
100
AcDbEntity
  8
0
  6
Continuous
 62
     7
370
    30
100
AcDbLine
 10
5.6045166167
 20
5.8688685442
 30
0.0
 11
5.5095166175
 21
5.8688685442
 31
0.0
  0
ARC
  5
3CC
330
1F
100
AcDbEntity
  8
0
  6
Continuous
 62
     7
370
    30
100
AcDbCircle
 10
5.6045166093
 20
5.8538685528
 30
0.0
 40
0.0150000000000006
100
AcDbArc
 50
0.0
 51
90.0
  0
LINE
  5
3CD
330
1F
100
AcDbEntity
  8
0
  6
Continuous
 62
     7
370
    30
100
AcDbLine
 10
5.6030166007
 20
5.2538685454
 30
0.0
 11
5.6030166007
 21
5.7447980442
 31
0.0
  0
LINE
  5
3CE
330
1F
100
AcDbEntity
  8
0
  6
Continuous
 62
     7
370
    30
100
AcDbLine
 10
5.1195165995
 20
5.8068685671
 30
0.0
 11
5.1195165995
 21
5.8538685308
 31
0.0
  0
ARC
  5
3CF
330
1F
100
AcDbEntity
  8
0
  6
Continuous
 62
     7
370
    30
100
AcDbCircle
 10
5.2280166093
 20
5.7447980284
 30
0.0
 40
0.1249999999999994
100
AcDbArc
 50
150.2270518686
 51
180.0
  0
LINE
  5
3D0
330
1F
100
AcDbEntity
  8
0
  6
Continuous
 62
     7
370
    30
100
AcDbLine
 10
5.1030166434
 20
5.2538685454
 30
0.0
 11
5.1030166434
 21
5.7447980442
 31
0.0
  0
ARC
  5
3D1
330
1F
100
AcDbEntity
  8
0
  6
Continuous
 62
     7
370
    30
100
AcDbCircle
 10
5.0930166093
 20
5.2538685528
 30
0.0
 40
0.0100000000000007
100
AcDbArc
 50
270.0
 51
0.0
  0
LINE
  5
3D2
330
1F
100
AcDbEntity
  8
0
  6
Continuous
 62
     7
370
    30
100
AcDbLine
 10
5.021016624
 20
5.2438685609
 30
0.0
 11
5.0930165856
 21
5.2438685609
 31
0.0
  0
ARC
  5
3D3
330
1F
100
AcDbEntity
  8
0
  6
Continuous
 62
     7
370
    30
100
AcDbCircle
 10
5.0210166093
 20
5.2538685528
 30
0.0
 40
0.0100000000000007
100
AcDbArc
 50
180.0
 51
270.0
  0
LINE
  5
3D4
330
1F
100
AcDbEntity
  8
0
  6
Continuous
 62
     7
370
    30
100
AcDbLine
 10
5.0110166395
 20
5.7447980442
 30
0.0
 11
5.0110166395
 21
5.2538685454
 31
0.0
  0
ARC
  5
3D5
330
1F
100
AcDbEntity
  8
0
  6
Continuous
 62
     7
370
    30
100
AcDbCircle
 10
4.8860166093
 20
5.7447980284
 30
0.0
 40
0.1249999999999994
100
AcDbArc
 50
0.0
 51
29.7729481314
  0
LINE
  5
3D6
330
1F
100
AcDbEntity
  8
0
  6
Continuous
 62
     7
370
    30
100
AcDbLine
 10
4.9945166102
 20
5.8538685308
 30
0.0
 11
4.9945166102
 21
5.8068685671
 31
0.0
  0
ARC
  5
3D7
330
1F
100
AcDbEntity
  8
0
  6
Continuous
 62
     7
370
    30
100
AcDbCircle
 10
5.0095166093
 20
5.8538685528
 30
0.0
 40
0.0150000000000006
100
AcDbArc
 50
90.0
 51
180.0
  0
ARC
  5
3D8
330
1F
100
AcDbEntity
  8
0
  6
Continuous
 62
     7
370
    30
100
AcDbCircle
 10
5.1045166093
 20
5.8538685528
 30
0.0
 40
0.0150000000000006
100
AcDbArc
 50
0.0
 51
90.0
  0
LINE
  5
3D9
330
1F
100
AcDbEntity
  8
0
  6
Continuous
 62
     7
370
    30
100
AcDbLine
 10
5.1045165861
 20
5.8688685442
 30
0.0
 11
5.0095166235
 21
5.8688685442
 31
0.0
  0
LINE
  5
3DA
330
1F
100
AcDbEntity
  8
0
  6
Continuous
 62
     7
370
    30
100
AcDbLine
 10
4.6195166422
 20
5.8068685671
 30
0.0
 11
4.6195166422
 21
5.8538685308
 31
0.0
  0
ARC
  5
3DB
330
1F
100
AcDbEntity
  8
0
  6
Continuous
 62
     7
370
    30
100
AcDbCircle
 10
4.7280166093
 20
5.7447980284
 30
0.0
 40
0.125
100
AcDbArc
 50
150.2270518686
 51
180.0
  0
LINE
  5
3DC
330
1F
100
AcDbEntity
  8
0
  6
Continuous
 62
     7
370
    30
100
AcDbLine
 10
4.6030166128
 20
5.2538685454
 30
0.0
 11
4.6030166128
 21
5.7447980442
 31
0.0
  0
ARC
  5
3DD
330
1F
100
AcDbEntity
  8
0
  6
Continuous
 62
     7
370
    30
100
AcDbCircle
 10
4.5930166093
 20
5.2538685528
 30
0.0
 40
0.0099999999999998
100
AcDbArc
 50
270.0
 51
0.0
  0
LINE
  5
3DE
330
1F
100
AcDbEntity
  8
0
  6
Continuous
 62
     7
370
    30
100
AcDbLine
 10
4.5210166667
 20
5.2438685609
 30
0.0
 11
4.5930166283
 21
5.2438685609
 31
0.0
  0
ARC
  5
3DF
330
1F
100
AcDbEntity
  8
0
  6
Continuous
 62
     7
370
    30
100
AcDbCircle
 10
4.5210166093
 20
5.2538685528
 30
0.0
 40
0.0099999999999998
100
AcDbArc
 50
180.0
 51
270.0
  0
LINE
  5
3E0
330
1F
100
AcDbEntity
  8
0
  6
Continuous
 62
     7
370
    30
100
AcDbLine
 10
4.5110166089
 20
5.7447980442
 30
0.0
 11
4.5110166089
 21
5.2538685454
 31
0.0
  0
LINE
  5
3E1
330
1F
100
AcDbEntity
  8
0
  6
Continuous
 62
     7
370
    30
100
AcDbLine
 10
4.4945166529
 20
5.8538685308
 30
0.0
 11
4.4945166529
 21
5.8068685671
 31
0.0
  0
ARC
  5
3E2
330
1F
100
AcDbEntity
  8
0
  6
Continuous
 62
     7
370
    30
100
AcDbCircle
 10
4.5095166093
 20
5.8538685528
 30
0.0
 40
0.0150000000000006
100
AcDbArc
 50
90.0
 51
180.0
  0
LINE
  5
3E3
330
1F
100
AcDbEntity
  8
0
  6
Continuous
 62
     7
370
    30
100
AcDbLine
 10
4.6045166288
 20
5.8688685442
 30
0.0
 11
4.5095166663
 21
5.8688685442
 31
0.0
  0
ARC
  5
3E4
330
1F
100
AcDbEntity
  8
0
  6
Continuous
 62
     7
370
    30
100
AcDbCircle
 10
4.6045166093
 20
5.8538685528
 30
0.0
 40
0.0150000000000006
100
AcDbArc
 50
0.0
 51
90.0
  0
ARC
  5
3E5
330
1F
100
AcDbEntity
  8
0
  6
Continuous
 62
     7
370
    30
100
AcDbCircle
 10
4.3860166093
 20
5.7447980284
 30
0.0
 40
0.1249999999999991
100
AcDbArc
 50
0.0
 51
29.7729481314
  0
LINE
  5
3E6
330
1F
100
AcDbEntity
  8
0
  6
Continuous
 62
     7
370
    30
100
AcDbLine
 10
4.1195166116
 20
5.8068685671
 30
0.0
 11
4.1195166116
 21
5.8538685308
 31
0.0
  0
ARC
  5
3E7
330
1F
100
AcDbEntity
  8
0
  6
Continuous
 62
     7
370
    30
100
AcDbCircle
 10
4.2280166093
 20
5.7447980284
 30
0.0
 40
0.1249999999999994
100
AcDbArc
 50
150.2270518686
 51
180.0
  0
LINE
  5
3E8
330
1F
100
AcDbEntity
  8
0
  6
Continuous
 62
     7
370
    30
100
AcDbLine
 10
4.1030166555
 20
5.2538685454
 30
0.0
 11
4.1030166555
 21
5.7447980442
 31
0.0
  0
ARC
  5
3E9
330
1F
100
AcDbEntity
  8
0
  6
Continuous
 62
     7
370
    30
100
AcDbCircle
 10
4.0930166093
 20
5.2538685528
 30
0.0
 40
0.0099999999999998
100
AcDbArc
 50
270.0
 51
0.0
  0
LINE
  5
3EA
330
1F
100
AcDbEntity
  8
0
  6
Continuous
 62
     7
370
    30
100
AcDbLine
 10
4.0210165628
 20
5.2438685609
 30
0.0
 11
4.0930165977
 21
5.2438685609
 31
0.0
  0
ARC
  5
3EB
330
1F
100
AcDbEntity
  8
0
  6
Continuous
 62
     7
370
    30
100
AcDbCircle
 10
4.0210166093
 20
5.2538685528
 30
0.0
 40
0.0099999999999998
100
AcDbArc
 50
180.0
 51
270.0
  0
LINE
  5
3EC
330
1F
100
AcDbEntity
  8
0
  6
Continuous
 62
     7
370
    30
100
AcDbLine
 10
4.0110166516
 20
5.7447980442
 30
0.0
 11
4.0110166516
 21
5.2538685454
 31
0.0
  0
ARC
  5
3ED
330
1F
100
AcDbEntity
  8
0
  6
Continuous
 62
     7
370
    30
100
AcDbCircle
 10
3.8860166093
 20
5.7447980284
 30
0.0
 40
0.1249999999999998
100
AcDbArc
 50
0.0
 51
29.7729481314
  0
LINE
  5
3EE
330
1F
100
AcDbEntity
  8
0
  6
Continuous
 62
     7
370
    30
100
AcDbLine
 10
3.9945165489
 20
5.8538685308
 30
0.0
 11
3.9945165489
 21
5.8068685671
 31
0.0
  0
ARC
  5
3EF
330
1F
100
AcDbEntity
  8
0
  6
Continuous
 62
     7
370
    30
100
AcDbCircle
 10
4.0095166093
 20
5.8538685528
 30
0.0
 40
0.0150000000000006
100
AcDbArc
 50
90.0
 51
180.0
  0
LINE
  5
3F0
330
1F
100
AcDbEntity
  8
0
  6
Continuous
 62
     7
370
    30
100
AcDbLine
 10
4.1045165982
 20
5.8688685442
 30
0.0
 11
4.0095165623
 21
5.8688685442
 31
0.0
  0
ARC
  5
3F1
330
1F
100
AcDbEntity
  8
0
  6
Continuous
 62
     7
370
    30
100
AcDbCircle
 10
4.1045166093
 20
5.8538685528
 30
0.0
 40
0.0150000000000006
100
AcDbArc
 50
0.0
 51
90.0
  0
LINE
  5
3F2
330
1F
100
AcDbEntity
  8
0
  6
Continuous
 62
     7
370
    30
100
AcDbLine
 10
3.6195166543
 20
5.8068685671
 30
0.0
 11
3.6195166543
 21
5.8538685308
 31
0.0
  0
ARC
  5
3F3
330
1F
100
AcDbEntity
  8
0
  6
Continuous
 62
     7
370
    30
100
AcDbCircle
 10
3.7280166093
 20
5.7447980284
 30
0.0
 40
0.125
100
AcDbArc
 50
150.2270518686
 51
180.0
  0
LINE
  5
3F4
330
1F
100
AcDbEntity
  8
0
  6
Continuous
 62
     7
370
    30
100
AcDbLine
 10
3.6030165516
 20
5.2538685454
 30
0.0
 11
3.6030165516
 21
5.7447980442
 31
0.0
  0
ARC
  5
3F5
330
1F
100
AcDbEntity
  8
0
  6
Continuous
 62
     7
370
    30
100
AcDbCircle
 10
3.5930166093
 20
5.2538685528
 30
0.0
 40
0.0100000000000002
100
AcDbArc
 50
270.0
 51
0.0
  0
LINE
  5
3F6
330
1F
100
AcDbEntity
  8
0
  6
Continuous
 62
     7
370
    30
100
AcDbLine
 10
3.5210166055
 20
5.2438685609
 30
0.0
 11
3.5930166404
 21
5.2438685609
 31
0.0
  0
ARC
  5
3F7
330
1F
100
AcDbEntity
  8
0
  6
Continuous
 62
     7
370
    30
100
AcDbCircle
 10
3.5210166093
 20
5.2538685528
 30
0.0
 40
0.0100000000000002
100
AcDbArc
 50
180.0
 51
270.0
  0
LINE
  5
3F8
330
1F
100
AcDbEntity
  8
0
  6
Continuous
 62
     7
370
    30
100
AcDbLine
 10
3.5110165477
 20
5.7447980442
 30
0.0
 11
3.5110165477
 21
5.2538685454
 31
0.0
  0
ARC
  5
3F9
330
1F
100
AcDbEntity
  8
0
  6
Continuous
 62
     7
370
    30
100
AcDbCircle
 10
3.3860166093
 20
5.7447980284
 30
0.0
 40
0.1249999999999991
100
AcDbArc
 50
0.0
 51
29.7729481314
  0
LINE
  5
3FA
330
1F
100
AcDbEntity
  8
0
  6
Continuous
 62
     7
370
    30
100
AcDbLine
 10
3.4945165916
 20
5.8538685308
 30
0.0
 11
3.4945165916
 21
5.8068685671
 31
0.0
  0
ARC
  5
3FB
330
1F
100
AcDbEntity
  8
0
  6
Continuous
 62
     7
370
    30
100
AcDbCircle
 10
3.5095166093
 20
5.8538685528
 30
0.0
 40
0.0150000000000006
100
AcDbArc
 50
90.0
 51
180.0
  0
LINE
  5
3FC
330
1F
100
AcDbEntity
  8
0
  6
Continuous
 62
     7
370
    30
100
AcDbLine
 10
3.6045166409
 20
5.8688685442
 30
0.0
 11
3.509516605
 21
5.8688685442
 31
0.0
  0
ARC
  5
3FD
330
1F
100
AcDbEntity
  8
0
  6
Continuous
 62
     7
370
    30
100
AcDbCircle
 10
3.6045166093
 20
5.8538685528
 30
0.0
 40
0.0150000000000006
100
AcDbArc
 50
0.0
 51
90.0
  0
LINE
  5
3FE
330
1F
100
AcDbEntity
  8
0
  6
Continuous
 62
     7
370
    30
100
AcDbLine
 10
8.3391416394
 20
5.8949946357
 30
0.0
 11
8.6821417304
 21
5.8949946357
 31
0.0
  0
ARC
  5
3FF
330
1F
100
AcDbEntity
  8
0
  6
Continuous
 62
     7
370
    30
100
AcDbCircle
 10
8.5621416093
 20
5.7518124005
 30
0.0
 40
0.0679999999999993
100
AcDbArc
 50
319.8808331016
 51
220.1191668984
  0
LINE
  5
400
330
1F
100
AcDbEntity
  8
0
  6
Continuous
 62
     7
370
    30
100
AcDbLine
 10
8.4941415822
 20
4.6449945959
 30
0.0
 11
8.4941415822
 21
5.707994596
 31
0.0
  0
LINE
  5
401
330
1F
100
AcDbEntity
  8
0
  6
Continuous
 62
     7
370
    30
100
AcDbLine
 10
8.4321416051
 20
4.6449945959
 30
0.0
 11
8.4941415822
 21
4.6449945959
 31
0.0
  0
LINE
  5
402
330
1F
100
AcDbEntity
  8
0
  6
Continuous
 62
     7
370
    30
100
AcDbLine
 10
8.2971414846
 20
4.7036185515
 30
0.0
 11
8.4321416051
 21
4.7036185515
 31
0.0
  0
LINE
  5
403
330
1F
100
AcDbEntity
  8
0
  6
Continuous
 62
     7
370
    30
100
AcDbLine
 10
8.2971414846
 20
4.743618549
 30
0.0
 11
8.2971414846
 21
4.7036185515
 31
0.0
  0
LINE
  5
404
330
1F
100
AcDbEntity
  8
0
  6
Continuous
 62
     7
370
    30
100
AcDbLine
 10
8.4321416051
 20
5.1258258079
 30
0.0
 11
8.4321416051
 21
4.743618549
 31
0.0
  0
LINE
  5
405
330
1F
100
AcDbEntity
  8
0
  6
Continuous
 62
     7
370
    30
100
AcDbLine
 10
8.3221417025
 20
5.0882980548
 30
0.0
 11
8.4096417317
 21
5.1388161812
 31
0.0
  0
LINE
  5
406
330
1F
100
AcDbEntity
  8
0
  6
Continuous
 62
     7
370
    30
100
AcDbLine
 10
8.4021415783
 20
5.180674071
 30
0.0
 11
8.3021415869
 21
5.1229390746
 31
0.0
  0
ARC
  5
407
330
1F
100
AcDbEntity
  8
0
  6
Continuous
 62
     7
370
    30
100
AcDbCircle
 10
8.3721416093
 20
5.232635612
 30
0.0
 40
0.0600000000000008
100
AcDbArc
 50
300.0
 51
0.0
  0
LINE
  5
408
330
1F
100
AcDbEntity
  8
0
  6
Continuous
 62
     7
370
    30
100
AcDbLine
 10
8.3391416394
 20
5.8329945853
 30
0.0
 11
8.4321416051
 21
5.8329945853
 31
0.0
  0
LINE
  5
409
330
1F
100
AcDbEntity
  8
0
  6
Continuous
 62
     7
370
    30
100
AcDbLine
 10
8.3391416394
 20
5.8949946357
 30
0.0
 11
8.3391416394
 21
5.8329945853
 31
0.0
  0
ARC
  5
40A
330
1F
100
AcDbEntity
  8
0
  6
Continuous
 62
     7
370
    30
100
AcDbCircle
 10
8.4171416093
 20
5.1258258122
 30
0.0
 40
0.0150000000000006
100
AcDbArc
 50
360.0
 51
120.0
  0
LINE
  5
40B
330
1F
100
AcDbEntity
  8
0
  6
Continuous
 62
     7
370
    30
100
AcDbLine
 10
8.4321416051
 20
4.7036185515
 30
0.0
 11
8.4321416051
 21
4.6449945959
 31
0.0
  0
LINE
  5
40C
330
1F
100
AcDbEntity
  8
0
  6
Continuous
 62
     7
370
    30
100
AcDbLine
 10
8.4941415822
 20
5.707994596
 30
0.0
 11
8.5101415574
 21
5.707994596
 31
0.0
  0
LINE
  5
40D
330
1F
100
AcDbEntity
  8
0
  6
Continuous
 62
     7
370
    30
100
AcDbLine
 10
8.4321416051
 20
4.743618549
 30
0.0
 11
8.2971414846
 21
4.743618549
 31
0.0
  0
LINE
  5
40E
330
1F
100
AcDbEntity
  8
0
  6
Continuous
 62
     7
370
    30
100
AcDbLine
 10
8.6141416893
 20
5.707994596
 30
0.0
 11
8.6821417304
 21
5.707994596
 31
0.0
  0
LINE
  5
40F
330
1F
100
AcDbEntity
  8
0
  6
Continuous
 62
     7
370
    30
100
AcDbLine
 10
8.6821417304
 20
5.707994596
 30
0.0
 11
8.6821417304
 21
5.8949946357
 31
0.0
  0
LINE
  5
410
330
1F
100
AcDbEntity
  8
0
  6
Continuous
 62
     7
370
    30
100
AcDbLine
 10
8.4321416051
 20
5.8329945853
 30
0.0
 11
8.4321416051
 21
5.2326356007
 31
0.0
  0
ARC
  5
411
330
1F
100
AcDbEntity
  8
0
  6
Continuous
 62
     7
370
    30
100
AcDbCircle
 10
8.3121416093
 20
5.1056185528
 30
0.0
 40
0.0200000000000001
100
AcDbArc
 50
120.0
 51
300.0
  0
LINE
  5
412
330
1F
100
AcDbEntity
  8
0
  6
Continuous
 62
     7
370
    30
100
AcDbLine
 10
3.1821416135
 20
4.7036185515
 30
0.0
 11
3.317141734
 21
4.7036185515
 31
0.0
  0
LINE
  5
413
330
1F
100
AcDbEntity
  8
0
  6
Continuous
 62
     7
370
    30
100
AcDbLine
 10
3.1201416364
 20
5.707994596
 30
0.0
 11
3.1201416364
 21
4.6449945959
 31
0.0
  0
LINE
  5
414
330
1F
100
AcDbEntity
  8
0
  6
Continuous
 62
     7
370
    30
100
AcDbLine
 10
3.1041416613
 20
5.707994596
 30
0.0
 11
3.1201416364
 21
5.707994596
 31
0.0
  0
ARC
  5
415
330
1F
100
AcDbEntity
  8
0
  6
Continuous
 62
     7
370
    30
100
AcDbCircle
 10
3.0521416093
 20
5.7518124005
 30
0.0
 40
0.0679999999999997
100
AcDbArc
 50
319.8808331016
 51
220.1191668984
  0
LINE
  5
416
330
1F
100
AcDbEntity
  8
0
  6
Continuous
 62
     7
370
    30
100
AcDbLine
 10
2.9321414882
 20
5.8949946357
 30
0.0
 11
3.2751415792
 21
5.8949946357
 31
0.0
  0
LINE
  5
417
330
1F
100
AcDbEntity
  8
0
  6
Continuous
 62
     7
370
    30
100
AcDbLine
 10
3.317141734
 20
4.7036185515
 30
0.0
 11
3.317141734
 21
4.743618549
 31
0.0
  0
LINE
  5
418
330
1F
100
AcDbEntity
  8
0
  6
Continuous
 62
     7
370
    30
100
AcDbLine
 10
3.1821416135
 20
4.6449945959
 30
0.0
 11
3.1821416135
 21
4.7036185515
 31
0.0
  0
LINE
  5
419
330
1F
100
AcDbEntity
  8
0
  6
Continuous
 62
     7
370
    30
100
AcDbLine
 10
3.1201416364
 20
4.6449945959
 30
0.0
 11
3.1821416135
 21
4.6449945959
 31
0.0
  0
LINE
  5
41A
330
1F
100
AcDbEntity
  8
0
  6
Continuous
 62
     7
370
    30
100
AcDbLine
 10
3.317141734
 20
4.743618549
 30
0.0
 11
3.1821416135
 21
4.743618549
 31
0.0
  0
LINE
  5
41B
330
1F
100
AcDbEntity
  8
0
  6
Continuous
 62
     7
370
    30
100
AcDbLine
 10
2.9321414882
 20
5.8949946357
 30
0.0
 11
2.9321414882
 21
5.707994596
 31
0.0
  0
LINE
  5
41C
330
1F
100
AcDbEntity
  8
0
  6
Continuous
 62
     7
370
    30
100
AcDbLine
 10
3.2751415792
 20
5.8329945853
 30
0.0
 11
3.2751415792
 21
5.8949946357
 31
0.0
  0
ARC
  5
41D
330
1F
100
AcDbEntity
  8
0
  6
Continuous
 62
     7
370
    30
100
AcDbCircle
 10
3.3021416093
 20
5.1056185528
 30
0.0
 40
0.02
100
AcDbArc
 50
240.0
 51
60.0
  0
LINE
  5
41E
330
1F
100
AcDbEntity
  8
0
  6
Continuous
 62
     7
370
    30
100
AcDbLine
 10
3.2046414869
 20
5.1388161812
 30
0.0
 11
3.2921415161
 21
5.0882980548
 31
0.0
  0
ARC
  5
41F
330
1F
100
AcDbEntity
  8
0
  6
Continuous
 62
     7
370
    30
100
AcDbCircle
 10
3.1971416093
 20
5.1258258122
 30
0.0
 40
0.0149999999999997
100
AcDbArc
 50
60.0
 51
180.0
  0
LINE
  5
420
330
1F
100
AcDbEntity
  8
0
  6
Continuous
 62
     7
370
    30
100
AcDbLine
 10
3.1821416135
 20
4.743618549
 30
0.0
 11
3.1821416135
 21
5.1258258079
 31
0.0
  0
LINE
  5
421
330
1F
100
AcDbEntity
  8
0
  6
Continuous
 62
     7
370
    30
100
AcDbLine
 10
3.1821416135
 20
5.2326356007
 30
0.0
 11
3.1821416135
 21
5.8329945853
 31
0.0
  0
ARC
  5
422
330
1F
100
AcDbEntity
  8
0
  6
Continuous
 62
     7
370
    30
100
AcDbCircle
 10
3.2421416093
 20
5.232635612
 30
0.0
 40
0.0600000000000003
100
AcDbArc
 50
180.0
 51
240.0
  0
LINE
  5
423
330
1F
100
AcDbEntity
  8
0
  6
Continuous
 62
     7
370
    30
100
AcDbLine
 10
2.9321414882
 20
5.707994596
 30
0.0
 11
3.0001415294
 21
5.707994596
 31
0.0
  0
LINE
  5
424
330
1F
100
AcDbEntity
  8
0
  6
Continuous
 62
     7
370
    30
100
AcDbLine
 10
3.1821416135
 20
5.8329945853
 30
0.0
 11
3.2751415792
 21
5.8329945853
 31
0.0
  0
LINE
  5
425
330
1F
100
AcDbEntity
  8
0
  6
Continuous
 62
     7
370
    30
100
AcDbLine
 10
3.3121416318
 20
5.1229390746
 30
0.0
 11
3.2121416403
 21
5.180674071
 31
0.0
  0
LINE
  5
426
330
1F
100
AcDbEntity
  8
0
  6
Continuous
 62
     7
370
    30
100
AcDbLine
 10
3.317141734
 20
4.743618549
 30
0.0
 11
8.2971414846
 21
4.743618549
 31
0.0
  0
LINE
  5
427
330
1F
100
AcDbEntity
  8
0
  6
Continuous
 62
     7
370
    30
100
AcDbLine
 10
3.2133915192
 20
4.743618549
 30
0.0
 11
3.2133915192
 21
4.7586185533
 31
0.0
  0
LINE
  5
428
330
1F
100
AcDbEntity
  8
0
  6
Continuous
 62
     7
370
    30
100
AcDbLine
 10
3.2133915192
 20
4.7586185533
 30
0.0
 11
8.4008916994
 21
4.7586185533
 31
0.0
  0
LINE
  5
429
330
1F
100
AcDbEntity
  8
0
  6
Continuous
 62
     7
370
    30
100
AcDbLine
 10
8.4008916994
 20
4.7586185533
 30
0.0
 11
8.4008916994
 21
4.743618549
 31
0.0
  0
LINE
  5
42A
330
1F
100
AcDbEntity
  8
0
  6
Continuous
 62
     7
370
    30
100
AcDbLine
 10
3.2133915192
 20
4.7586185533
 30
0.0
 11
3.2133915192
 21
4.8686185475
 31
0.0
  0
LINE
  5
42B
330
1F
100
AcDbEntity
  8
0
  6
Continuous
 62
     7
370
    30
100
AcDbLine
 10
8.4008916994
 20
4.7586185533
 30
0.0
 11
8.4008916994
 21
4.8686185475
 31
0.0
  0
LINE
  5
42C
330
1F
100
AcDbEntity
  8
0
  6
Continuous
 62
     7
370
    30
100
AcDbLine
 10
3.2133915192
 20
4.8686185475
 30
0.0
 11
8.4008916994
 21
4.8686185475
 31
0.0
  0
LINE
  5
42D
330
1F
100
AcDbEntity
  8
0
  6
Continuous
 62
     7
370
    30
100
AcDbLine
 10
3.2133915192
 20
4.9306185613
 30
0.0
 11
3.2133915192
 21
5.0406185556
 31
0.0
  0
LINE
  5
42E
330
1F
100
AcDbEntity
  8
0
  6
Continuous
 62
     7
370
    30
100
AcDbLine
 10
3.2133915192
 20
5.0406185556
 30
0.0
 11
8.4008916994
 21
5.0406185556
 31
0.0
  0
LINE
  5
42F
330
1F
100
AcDbEntity
  8
0
  6
Continuous
 62
     7
370
    30
100
AcDbLine
 10
8.4008916994
 20
4.9306185613
 30
0.0
 11
8.4008916994
 21
5.0406185556
 31
0.0
  0
LINE
  5
430
330
1F
100
AcDbEntity
  8
0
  6
Continuous
 62
     7
370
    30
100
AcDbLine
 10
3.2133915192
 20
4.9306185613
 30
0.0
 11
8.4008916994
 21
4.9306185613
 31
0.0
  0
LINE
  5
431
330
1F
100
AcDbEntity
  8
0
  6
Continuous
 62
     7
370
    30
100
AcDbLine
 10
3.2133915192
 20
5.0406185556
 30
0.0
 11
3.2133915192
 21
5.055618569
 31
0.0
  0
LINE
  5
432
330
1F
100
AcDbEntity
  8
0
  6
Continuous
 62
     7
370
    30
100
AcDbLine
 10
3.2133915192
 20
5.055618569
 30
0.0
 11
8.4008916994
 21
5.055618569
 31
0.0
  0
LINE
  5
433
330
1F
100
AcDbEntity
  8
0
  6
Continuous
 62
     7
370
    30
100
AcDbLine
 10
8.4008916994
 20
5.055618569
 30
0.0
 11
8.4008916994
 21
5.0406185556
 31
0.0
  0
LINE
  5
434
330
1F
100
AcDbEntity
  8
0
  6
Continuous
 62
     7
370
    30
100
AcDbLine
 10
8.4008916994
 20
4.9306185613
 30
0.0
 11
8.4008916994
 21
4.8686185475
 31
0.0
  0
LINE
  5
435
330
1F
100
AcDbEntity
  8
0
  6
Continuous
 62
     7
370
    30
100
AcDbLine
 10
3.2133915192
 20
4.8686185475
 30
0.0
 11
3.2133915192
 21
4.9306185613
 31
0.0
  0
LINE
  5
436
330
1F
100
AcDbEntity
  8
0
  6
Continuous
 62
     7
370
    30
100
AcDbLine
 10
8.2322665807
 20
5.2428685625
 30
0.0
 11
8.3852665999
 21
5.2428685625
 31
0.0
  0
LINE
  5
437
330
1F
100
AcDbEntity
  8
0
  6
Continuous
 62
     7
370
    30
100
AcDbLine
 10
8.3852665999
 20
5.1176185461
 30
0.0
 11
8.2778793871
 21
5.055618569
 31
0.0
  0
LINE
  5
438
330
1F
100
AcDbEntity
  8
0
  6
Continuous
 62
     7
370
    30
100
AcDbLine
 10
8.3852665999
 20
5.055618569
 30
0.0
 11
8.3852665999
 21
5.1176185461
 31
0.0
  0
LINE
  5
439
330
1F
100
AcDbEntity
  8
0
  6
Continuous
 62
     7
370
    30
100
AcDbLine
 10
3.3364038315
 20
5.055618569
 30
0.0
 11
3.2290166187
 21
5.1176185461
 31
0.0
  0
LINE
  5
43A
330
1F
100
AcDbEntity
  8
0
  6
Continuous
 62
     7
370
    30
100
AcDbLine
 10
3.3820166379
 20
5.2428685625
 30
0.0
 11
3.3820166379
 21
5.055618569
 31
0.0
  0
LINE
  5
43B
330
1F
100
AcDbEntity
  8
0
  6
Continuous
 62
     7
370
    30
100
AcDbLine
 10
3.2290166187
 20
5.2428685625
 30
0.0
 11
3.3820166379
 21
5.2428685625
 31
0.0
  0
LINE
  5
43C
330
1F
100
AcDbEntity
  8
0
  6
Continuous
 62
     7
370
    30
100
AcDbLine
 10
3.2290166187
 20
5.2438685609
 30
0.0
 11
3.2290166187
 21
5.2428685625
 31
0.0
  0
LINE
  5
43D
330
1F
100
AcDbEntity
  8
0
  6
Continuous
 62
     7
370
    30
100
AcDbLine
 10
8.3852665999
 20
5.2428685625
 30
0.0
 11
8.3852665999
 21
5.2438685609
 31
0.0
  0
LINE
  5
43E
330
1F
100
AcDbEntity
  8
0
  6
Continuous
 62
     7
370
    30
100
AcDbLine
 10
8.2322665807
 20
5.055618569
 30
0.0
 11
8.2322665807
 21
5.2428685625
 31
0.0
  0
LINE
  5
43F
330
1F
100
AcDbEntity
  8
0
  6
Continuous
 62
     7
370
    30
100
AcDbLine
 10
3.2290166187
 20
5.1176185461
 30
0.0
 11
3.2290166187
 21
5.055618569
 31
0.0
  0
LINE
  5
440
330
1F
100
AcDbEntity
  8
0
  6
Continuous
 62
     7
370
    30
100
AcDbLine
 10
8.3852665999
 20
5.2438685609
 30
0.0
 11
8.0930165494
 21
5.2438685609
 31
0.0
  0
LINE
  5
441
330
1F
100
AcDbEntity
  8
0
  6
Continuous
 62
     7
370
    30
100
AcDbLine
 10
8.0210166611
 20
5.2438685609
 30
0.0
 11
7.5930165921
 21
5.2438685609
 31
0.0
  0
LINE
  5
442
330
1F
100
AcDbEntity
  8
0
  6
Continuous
 62
     7
370
    30
100
AcDbLine
 10
7.5210165571
 20
5.2438685609
 30
0.0
 11
7.0930166348
 21
5.2438685609
 31
0.0
  0
LINE
  5
443
330
1F
100
AcDbEntity
  8
0
  6
Continuous
 62
     7
370
    30
100
AcDbLine
 10
7.0210165999
 20
5.2438685609
 30
0.0
 11
6.5930166042
 21
5.2438685609
 31
0.0
  0
LINE
  5
444
330
1F
100
AcDbEntity
  8
0
  6
Continuous
 62
     7
370
    30
100
AcDbLine
 10
6.5210166426
 20
5.2438685609
 30
0.0
 11
6.0930166102
 21
5.2438685609
 31
0.0
  0
LINE
  5
445
330
1F
100
AcDbEntity
  8
0
  6
Continuous
 62
     7
370
    30
100
AcDbLine
 10
6.0210166119
 20
5.2438685609
 30
0.0
 11
5.5930166162
 21
5.2438685609
 31
0.0
  0
LINE
  5
446
330
1F
100
AcDbEntity
  8
0
  6
Continuous
 62
     7
370
    30
100
AcDbLine
 10
5.521016618
 20
5.2438685609
 30
0.0
 11
5.0930165856
 21
5.2438685609
 31
0.0
  0
LINE
  5
447
330
1F
100
AcDbEntity
  8
0
  6
Continuous
 62
     7
370
    30
100
AcDbLine
 10
5.021016624
 20
5.2438685609
 30
0.0
 11
4.5930166283
 21
5.2438685609
 31
0.0
  0
LINE
  5
448
330
1F
100
AcDbEntity
  8
0
  6
Continuous
 62
     7
370
    30
100
AcDbLine
 10
4.5210166667
 20
5.2438685609
 30
0.0
 11
4.0930165977
 21
5.2438685609
 31
0.0
  0
LINE
  5
449
330
1F
100
AcDbEntity
  8
0
  6
Continuous
 62
     7
370
    30
100
AcDbLine
 10
4.0210165628
 20
5.2438685609
 30
0.0
 11
3.5930166404
 21
5.2438685609
 31
0.0
  0
LINE
  5
44A
330
1F
100
AcDbEntity
  8
0
  6
Continuous
 62
     7
370
    30
100
AcDbLine
 10
3.5210166055
 20
5.2438685609
 30
0.0
 11
3.2290166187
 21
5.2438685609
 31
0.0
  0
LINE
  5
44B
330
1F
100
AcDbEntity
  8
0
  6
Continuous
 62
     7
370
    30
100
AcDbLine
 10
3.3820166379
 20
4.743618549
 30
0.0
 11
3.3820166379
 21
4.7118685525
 31
0.0
  0
LINE
  5
44C
330
1F
100
AcDbEntity
  8
0
  6
Continuous
 62
     7
370
    30
100
AcDbLine
 10
8.2322665807
 20
4.7118685525
 30
0.0
 11
8.2322665807
 21
4.743618549
 31
0.0
  0
LINE
  5
44D
330
1F
100
AcDbEntity
  8
0
  6
Continuous
 62
     7
370
    30
100
AcDbLine
 10
8.2322665807
 20
4.7118685525
 30
0.0
 11
7.1363602407
 21
4.7118685525
 31
0.0
  0
LINE
  5
44E
330
1F
100
AcDbEntity
  8
0
  6
Continuous
 62
     7
370
    30
100
AcDbLine
 10
7.040422869
 20
4.7118685525
 30
0.0
 11
4.5738603496
 21
4.7118685525
 31
0.0
  0
LINE
  5
44F
330
1F
100
AcDbEntity
  8
0
  6
Continuous
 62
     7
370
    30
100
AcDbLine
 10
4.4779229779
 20
4.7118685525
 30
0.0
 11
3.3820166379
 21
4.7118685525
 31
0.0
  0
LINE
  5
450
330
1F
100
AcDbEntity
  8
0
  6
Continuous
 62
     7
370
    30
100
AcDbLine
 10
8.0110166033
 20
5.3316198639
 30
0.0
 11
7.9961490284
 21
5.3058685747
 31
0.0
  0
LINE
  5
451
330
1F
100
AcDbEntity
  8
0
  6
Continuous
 62
     7
370
    30
100
AcDbLine
 10
7.9961490284
 20
5.3058685747
 30
0.0
 11
8.0110166033
 21
5.3058685747
 31
0.0
  0
LINE
  5
452
330
1F
100
AcDbEntity
  8
0
  6
Continuous
 62
     7
370
    30
100
AcDbLine
 10
8.1030166072
 20
5.3058685747
 30
0.0
 11
8.1178841821
 21
5.3058685747
 31
0.0
  0
LINE
  5
453
330
1F
100
AcDbEntity
  8
0
  6
Continuous
 62
     7
370
    30
100
AcDbLine
 10
8.1178841821
 20
5.3058685747
 30
0.0
 11
8.1030166072
 21
5.3316198639
 31
0.0
  0
LINE
  5
454
330
1F
100
AcDbEntity
  8
0
  6
Continuous
 62
     7
370
    30
100
AcDbLine
 10
8.3852665999
 20
5.5868685419
 30
0.0
 11
8.1030166072
 21
5.5868685419
 31
0.0
  0
LINE
  5
455
330
1F
100
AcDbEntity
  8
0
  6
Continuous
 62
     7
370
    30
100
AcDbLine
 10
3.5110165477
 20
5.5868685419
 30
0.0
 11
3.2290166187
 21
5.5868685419
 31
0.0
  0
LINE
  5
456
330
1F
100
AcDbEntity
  8
0
  6
Continuous
 62
     7
370
    30
100
AcDbLine
 10
3.5110165477
 20
5.3316198639
 30
0.0
 11
3.4961491194
 21
5.3058685747
 31
0.0
  0
LINE
  5
457
330
1F
100
AcDbEntity
  8
0
  6
Continuous
 62
     7
370
    30
100
AcDbLine
 10
3.4961491194
 20
5.3058685747
 30
0.0
 11
3.5110165477
 21
5.3058685747
 31
0.0
  0
LINE
  5
458
330
1F
100
AcDbEntity
  8
0
  6
Continuous
 62
     7
370
    30
100
AcDbLine
 10
3.6030165516
 20
5.3058685747
 30
0.0
 11
3.6178841265
 21
5.3058685747
 31
0.0
  0
LINE
  5
459
330
1F
100
AcDbEntity
  8
0
  6
Continuous
 62
     7
370
    30
100
AcDbLine
 10
3.6178841265
 20
5.3058685747
 30
0.0
 11
3.6030165516
 21
5.3316198639
 31
0.0
  0
LINE
  5
45A
330
1F
100
AcDbEntity
  8
0
  6
Continuous
 62
     7
370
    30
100
AcDbLine
 10
4.0110166516
 20
5.5868685419
 30
0.0
 11
3.6030165516
 21
5.5868685419
 31
0.0
  0
LINE
  5
45B
330
1F
100
AcDbEntity
  8
0
  6
Continuous
 62
     7
370
    30
100
AcDbLine
 10
4.0110166516
 20
5.3316198639
 30
0.0
 11
3.9961490767
 21
5.3058685747
 31
0.0
  0
LINE
  5
45C
330
1F
100
AcDbEntity
  8
0
  6
Continuous
 62
     7
370
    30
100
AcDbLine
 10
3.9961490767
 20
5.3058685747
 30
0.0
 11
4.0110166516
 21
5.3058685747
 31
0.0
  0
LINE
  5
45D
330
1F
100
AcDbEntity
  8
0
  6
Continuous
 62
     7
370
    30
100
AcDbLine
 10
4.1030166555
 20
5.3058685747
 30
0.0
 11
4.1178840838
 21
5.3058685747
 31
0.0
  0
LINE
  5
45E
330
1F
100
AcDbEntity
  8
0
  6
Continuous
 62
     7
370
    30
100
AcDbLine
 10
4.1178840838
 20
5.3058685747
 30
0.0
 11
4.1030166555
 21
5.3316198639
 31
0.0
  0
LINE
  5
45F
330
1F
100
AcDbEntity
  8
0
  6
Continuous
 62
     7
370
    30
100
AcDbLine
 10
4.5110166089
 20
5.5868685419
 30
0.0
 11
4.1030166555
 21
5.5868685419
 31
0.0
  0
LINE
  5
460
330
1F
100
AcDbEntity
  8
0
  6
Continuous
 62
     7
370
    30
100
AcDbLine
 10
4.5110166089
 20
5.3316198639
 30
0.0
 11
4.496149034
 21
5.3058685747
 31
0.0
  0
LINE
  5
461
330
1F
100
AcDbEntity
  8
0
  6
Continuous
 62
     7
370
    30
100
AcDbLine
 10
4.496149034
 20
5.3058685747
 30
0.0
 11
4.5110166089
 21
5.3058685747
 31
0.0
  0
LINE
  5
462
330
1F
100
AcDbEntity
  8
0
  6
Continuous
 62
     7
370
    30
100
AcDbLine
 10
4.6030166128
 20
5.3058685747
 30
0.0
 11
4.6178841144
 21
5.3058685747
 31
0.0
  0
LINE
  5
463
330
1F
100
AcDbEntity
  8
0
  6
Continuous
 62
     7
370
    30
100
AcDbLine
 10
4.6178841144
 20
5.3058685747
 30
0.0
 11
4.6030166128
 21
5.3316198639
 31
0.0
  0
LINE
  5
464
330
1F
100
AcDbEntity
  8
0
  6
Continuous
 62
     7
370
    30
100
AcDbLine
 10
5.0110166395
 20
5.5868685419
 30
0.0
 11
4.6030166128
 21
5.5868685419
 31
0.0
  0
LINE
  5
465
330
1F
100
AcDbEntity
  8
0
  6
Continuous
 62
     7
370
    30
100
AcDbLine
 10
5.0110166395
 20
5.3316198639
 30
0.0
 11
4.9961490646
 21
5.3058685747
 31
0.0
  0
LINE
  5
466
330
1F
100
AcDbEntity
  8
0
  6
Continuous
 62
     7
370
    30
100
AcDbLine
 10
4.9961490646
 20
5.3058685747
 30
0.0
 11
5.0110166395
 21
5.3058685747
 31
0.0
  0
LINE
  5
467
330
1F
100
AcDbEntity
  8
0
  6
Continuous
 62
     7
370
    30
100
AcDbLine
 10
5.1030166434
 20
5.3058685747
 30
0.0
 11
5.117884145
 21
5.3058685747
 31
0.0
  0
LINE
  5
468
330
1F
100
AcDbEntity
  8
0
  6
Continuous
 62
     7
370
    30
100
AcDbLine
 10
5.117884145
 20
5.3058685747
 30
0.0
 11
5.1030166434
 21
5.3316198639
 31
0.0
  0
LINE
  5
469
330
1F
100
AcDbEntity
  8
0
  6
Continuous
 62
     7
370
    30
100
AcDbLine
 10
5.5110166152
 20
5.3316198639
 30
0.0
 11
5.4961490953
 21
5.3058685747
 31
0.0
  0
LINE
  5
46A
330
1F
100
AcDbEntity
  8
0
  6
Continuous
 62
     7
370
    30
100
AcDbLine
 10
5.4961490953
 20
5.3058685747
 30
0.0
 11
5.5110166152
 21
5.3058685747
 31
0.0
  0
LINE
  5
46B
330
1F
100
AcDbEntity
  8
0
  6
Continuous
 62
     7
370
    30
100
AcDbLine
 10
5.6030166007
 20
5.3058685747
 30
0.0
 11
5.6178841206
 21
5.3058685747
 31
0.0
  0
LINE
  5
46C
330
1F
100
AcDbEntity
  8
0
  6
Continuous
 62
     7
370
    30
100
AcDbLine
 10
5.6178841206
 20
5.3058685747
 30
0.0
 11
5.6030166007
 21
5.3316198639
 31
0.0
  0
LINE
  5
46D
330
1F
100
AcDbEntity
  8
0
  6
Continuous
 62
     7
370
    30
100
AcDbLine
 10
6.0110166091
 20
5.3316198639
 30
0.0
 11
5.9961490892
 21
5.3058685747
 31
0.0
  0
LINE
  5
46E
330
1F
100
AcDbEntity
  8
0
  6
Continuous
 62
     7
370
    30
100
AcDbLine
 10
5.9961490892
 20
5.3058685747
 30
0.0
 11
6.0110166091
 21
5.3058685747
 31
0.0
  0
LINE
  5
46F
330
1F
100
AcDbEntity
  8
0
  6
Continuous
 62
     7
370
    30
100
AcDbLine
 10
6.103016613
 20
5.3058685747
 30
0.0
 11
6.1178841329
 21
5.3058685747
 31
0.0
  0
LINE
  5
470
330
1F
100
AcDbEntity
  8
0
  6
Continuous
 62
     7
370
    30
100
AcDbLine
 10
6.1178841329
 20
5.3058685747
 30
0.0
 11
6.103016613
 21
5.3316198639
 31
0.0
  0
LINE
  5
471
330
1F
100
AcDbEntity
  8
0
  6
Continuous
 62
     7
370
    30
100
AcDbLine
 10
6.5110165848
 20
5.3316198639
 30
0.0
 11
6.4961490832
 21
5.3058685747
 31
0.0
  0
LINE
  5
472
330
1F
100
AcDbEntity
  8
0
  6
Continuous
 62
     7
370
    30
100
AcDbLine
 10
6.4961490832
 20
5.3058685747
 30
0.0
 11
6.5110165848
 21
5.3058685747
 31
0.0
  0
LINE
  5
473
330
1F
100
AcDbEntity
  8
0
  6
Continuous
 62
     7
370
    30
100
AcDbLine
 10
6.6030165886
 20
5.3058685747
 30
0.0
 11
6.6178840902
 21
5.3058685747
 31
0.0
  0
LINE
  5
474
330
1F
100
AcDbEntity
  8
0
  6
Continuous
 62
     7
370
    30
100
AcDbLine
 10
6.6178840902
 20
5.3058685747
 30
0.0
 11
6.6030165886
 21
5.3316198639
 31
0.0
  0
LINE
  5
475
330
1F
100
AcDbEntity
  8
0
  6
Continuous
 62
     7
370
    30
100
AcDbLine
 10
7.0110166154
 20
5.3316198639
 30
0.0
 11
6.9961491138
 21
5.3058685747
 31
0.0
  0
LINE
  5
476
330
1F
100
AcDbEntity
  8
0
  6
Continuous
 62
     7
370
    30
100
AcDbLine
 10
6.9961491138
 20
5.3058685747
 30
0.0
 11
7.0110166154
 21
5.3058685747
 31
0.0
  0
LINE
  5
477
330
1F
100
AcDbEntity
  8
0
  6
Continuous
 62
     7
370
    30
100
AcDbLine
 10
7.1030165459
 20
5.3058685747
 30
0.0
 11
7.1178841208
 21
5.3058685747
 31
0.0
  0
LINE
  5
478
330
1F
100
AcDbEntity
  8
0
  6
Continuous
 62
     7
370
    30
100
AcDbLine
 10
7.1178841208
 20
5.3058685747
 30
0.0
 11
7.1030165459
 21
5.3316198639
 31
0.0
  0
LINE
  5
479
330
1F
100
AcDbEntity
  8
0
  6
Continuous
 62
     7
370
    30
100
AcDbLine
 10
7.511016646
 20
5.3316198639
 30
0.0
 11
7.4961490711
 21
5.3058685747
 31
0.0
  0
LINE
  5
47A
330
1F
100
AcDbEntity
  8
0
  6
Continuous
 62
     7
370
    30
100
AcDbLine
 10
7.4961490711
 20
5.3058685747
 30
0.0
 11
7.511016646
 21
5.3058685747
 31
0.0
  0
LINE
  5
47B
330
1F
100
AcDbEntity
  8
0
  6
Continuous
 62
     7
370
    30
100
AcDbLine
 10
7.6030166499
 20
5.3058685747
 30
0.0
 11
7.6178840781
 21
5.3058685747
 31
0.0
  0
LINE
  5
47C
330
1F
100
AcDbEntity
  8
0
  6
Continuous
 62
     7
370
    30
100
AcDbLine
 10
7.6178840781
 20
5.3058685747
 30
0.0
 11
7.6030166499
 21
5.3316198639
 31
0.0
  0
LINE
  5
47D
330
1F
100
AcDbEntity
  8
0
  6
Continuous
 62
     7
370
    30
100
AcDbLine
 10
6.5110165848
 20
5.5868685419
 30
0.0
 11
6.103016613
 21
5.5868685419
 31
0.0
  0
LINE
  5
47E
330
1F
100
AcDbEntity
  8
0
  6
Continuous
 62
     7
370
    30
100
AcDbLine
 10
7.0110166154
 20
5.5868685419
 30
0.0
 11
6.6030165886
 21
5.5868685419
 31
0.0
  0
LINE
  5
47F
330
1F
100
AcDbEntity
  8
0
  6
Continuous
 62
     7
370
    30
100
AcDbLine
 10
6.0110166091
 20
5.5868685419
 30
0.0
 11
5.6030166007
 21
5.5868685419
 31
0.0
  0
LINE
  5
480
330
1F
100
AcDbEntity
  8
0
  6
Continuous
 62
     7
370
    30
100
AcDbLine
 10
8.0110166033
 20
5.5868685419
 30
0.0
 11
7.6030166499
 21
5.5868685419
 31
0.0
  0
LINE
  5
481
330
1F
100
AcDbEntity
  8
0
  6
Continuous
 62
     7
370
    30
100
AcDbLine
 10
5.5110166152
 20
5.5868685419
 30
0.0
 11
5.1030166434
 21
5.5868685419
 31
0.0
  0
LINE
  5
482
330
1F
100
AcDbEntity
  8
0
  6
Continuous
 62
     7
370
    30
100
AcDbLine
 10
7.511016646
 20
5.5868685419
 30
0.0
 11
7.1030165459
 21
5.5868685419
 31
0.0
  0
LINE
  5
483
330
1F
100
AcDbEntity
  8
0
  6
Continuous
 62
     7
370
    30
100
AcDbLine
 10
8.3852665999
 20
5.5868685419
 30
0.0
 11
8.3852665999
 21
5.2438685609
 31
0.0
  0
LINE
  5
484
330
1F
100
AcDbEntity
  8
0
  6
Continuous
 62
     7
370
    30
100
AcDbLine
 10
3.2290166187
 20
5.2438685609
 30
0.0
 11
3.2290166187
 21
5.5868685419
 31
0.0
  0
ENDSEC
  0
SECTION
  2
OBJECTS
  0
DICTIONARY
  5
C
330
0
100
AcDbDictionary
281
     1
  3
ACAD_GROUP
350
D
  3
ACAD_LAYOUT
350
1A
  3
ACAD_MLINESTYLE
350
17
  3
ACAD_PLOTSETTINGS
350
19
  3
ACAD_PLOTSTYLENAME
350
E
  3
ACAD_SCALELIST
350
47
  0
DICTIONARY
  5
D
102
{ACAD_REACTORS
330
C
102
}
330
C
100
AcDbDictionary
281
     1
  0
DICTIONARY
  5
1A
102
{ACAD_REACTORS
330
C
102
}
330
C
100
AcDbDictionary
281
     1
  3
Layout1
350
1E
  3
Layout2
350
26
  3
Model
350
22
  0
DICTIONARY
  5
17
102
{ACAD_REACTORS
330
C
102
}
330
C
100
AcDbDictionary
281
     1
  3
Standard
350
18
  0
DICTIONARY
  5
19
102
{ACAD_REACTORS
330
C
102
}
330
C
100
AcDbDictionary
281
     1
  0
ACDBDICTIONARYWDFLT
  5
E
102
{ACAD_REACTORS
330
C
102
}
330
C
100
AcDbDictionary
281
     1
  3
Normal
350
F
100
AcDbDictionaryWithDefault
340
F
  0
DICTIONARY
  5
47
102
{ACAD_REACTORS
330
C
102
}
330
C
100
AcDbDictionary
281
     1
  3
A0
350
48
  3
A1
350
49
  3
A2
350
4A
  3
A3
350
4B
  3
A4
350
4C
  3
A5
350
4D
  3
A6
350
4E
  3
A7
350
4F
  3
A8
350
50
  3
A9
350
51
  3
B0
350
52
  3
B1
350
53
  3
B2
350
54
  3
B3
350
55
  3
B4
350
56
  3
B5
350
57
  3
B6
350
58
  3
B7
350
59
  3
B8
350
5A
  3
B9
350
5B
  3
C0
350
5C
  3
C1
350
5D
  3
C2
350
5E
  3
C3
350
5F
  3
C4
350
60
  3
C5
350
61
  3
C6
350
62
  3
C7
350
63
  3
C8
350
64
  3
C9
350
65
  3
D0
350
66
  3
D1
350
67
  3
D2
350
68
  0
LAYOUT
  5
1E
102
{ACAD_REACTORS
330
1A
102
}
330
1A
100
AcDbPlotSettings
  1

  2
none_device
  4

  6

 40
0.0
 41
0.0
 42
0.0
 43
0.0
 44
0.0
 45
0.0
 46
0.0
 47
0.0
 48
0.0
 49
0.0
140
0.0
141
0.0
142
1.0
143
1.0
 70
   688
 72
     0
 73
     0
 74
     5
  7

 75
    16
147
1.0
148
0.0
149
0.0
100
AcDbLayout
  1
Layout1
 70
     1
 71
     1
 10
0.0
 20
0.0
 11
12.0
 21
9.0
 12
0.0
 22
0.0
 32
0.0
 14
1.0000000000E+20
 24
1.0000000000E+20
 34
1.0000000000E+20
 15
-1.0000000000E+20
 25
-1.0000000000E+20
 35
-1.0000000000E+20
146
0.0
 13
0.0
 23
0.0
 33
0.0
 16
1.0
 26
0.0
 36
0.0
 17
0.0
 27
1.0
 37
0.0
 76
     0
330
1B
  0
LAYOUT
  5
26
102
{ACAD_REACTORS
330
1A
102
}
330
1A
100
AcDbPlotSettings
  1

  2
none_device
  4

  6

 40
0.0
 41
0.0
 42
0.0
 43
0.0
 44
0.0
 45
0.0
 46
0.0
 47
0.0
 48
0.0
 49
0.0
140
0.0
141
0.0
142
1.0
143
1.0
 70
   688
 72
     0
 73
     0
 74
     5
  7

 75
    16
147
1.0
148
0.0
149
0.0
100
AcDbLayout
  1
Layout2
 70
     1
 71
     2
 10
0.0
 20
0.0
 11
0.0
 21
0.0
 12
0.0
 22
0.0
 32
0.0
 14
0.0
 24
0.0
 34
0.0
 15
0.0
 25
0.0
 35
0.0
146
0.0
 13
0.0
 23
0.0
 33
0.0
 16
1.0
 26
0.0
 36
0.0
 17
0.0
 27
1.0
 37
0.0
 76
     0
330
23
  0
LAYOUT
  5
22
102
{ACAD_REACTORS
330
1A
102
}
330
1A
100
AcDbPlotSettings
  1

  2
none_device
  4
Letter_(8.50_x_11.00_Inches)
  6

 40
6.35
 41
6.35
 42
6.35000508
 43
6.35000508
 44
215.9
 45
279.4
 46
0.0
 47
0.0
 48
0.0
 49
0.0
140
0.0
141
0.0
142
1.0
143
1.0
 70
  1712
 72
     0
 73
     0
 74
     0
  7

 75
     0
147
1.0
148
0.0
149
0.0
100
AcDbLayout
  1
Model
 70
     1
 71
     0
 10
0.0
 20
0.0
 11
11.0
 21
8.5
 12
0.0
 22
0.0
 32
0.0
 14
0.0
 24
0.0
 34
0.0
 15
11.0
 25
8.5
 35
0.0
146
0.0
 13
0.0
 23
0.0
 33
0.0
 16
1.0
 26
0.0
 36
0.0
 17
0.0
 27
1.0
 37
0.0
 76
     0
330
1F
331
29
  0
MLINESTYLE
  5
18
102
{ACAD_REACTORS
330
17
102
}
330
17
100
AcDbMlineStyle
  2
Standard
 70
     0
  3

 62
   256
 51
90.0
 52
90.0
 71
     2
 49
0.5
 62
   256
  6
BYLAYER
 49
-0.5
 62
   256
  6
BYLAYER
  0
ACDBPLACEHOLDER
  5
F
102
{ACAD_REACTORS
330
E
102
}
330
E
  0
SCALE
  5
48
102
{ACAD_REACTORS
330
47
102
}
330
47
100
AcDbScale
 70
     0
300
1:1
140
1.0
141
1.0
290
     1
  0
SCALE
  5
49
102
{ACAD_REACTORS
330
47
102
}
330
47
100
AcDbScale
 70
     0
300
1:2
140
1.0
141
2.0
290
     0
  0
SCALE
  5
4A
102
{ACAD_REACTORS
330
47
102
}
330
47
100
AcDbScale
 70
     0
300
1:4
140
1.0
141
4.0
290
     0
  0
SCALE
  5
4B
102
{ACAD_REACTORS
330
47
102
}
330
47
100
AcDbScale
 70
     0
300
1:5
140
1.0
141
5.0
290
     0
  0
SCALE
  5
4C
102
{ACAD_REACTORS
330
47
102
}
330
47
100
AcDbScale
 70
     0
300
1:8
140
1.0
141
8.0
290
     0
  0
SCALE
  5
4D
102
{ACAD_REACTORS
330
47
102
}
330
47
100
AcDbScale
 70
     0
300
1:10
140
1.0
141
10.0
290
     0
  0
SCALE
  5
4E
102
{ACAD_REACTORS
330
47
102
}
330
47
100
AcDbScale
 70
     0
300
1:16
140
1.0
141
16.0
290
     0
  0
SCALE
  5
4F
102
{ACAD_REACTORS
330
47
102
}
330
47
100
AcDbScale
 70
     0
300
1:20
140
1.0
141
20.0
290
     0
  0
SCALE
  5
50
102
{ACAD_REACTORS
330
47
102
}
330
47
100
AcDbScale
 70
     0
300
1:30
140
1.0
141
30.0
290
     0
  0
SCALE
  5
51
102
{ACAD_REACTORS
330
47
102
}
330
47
100
AcDbScale
 70
     0
300
1:40
140
1.0
141
40.0
290
     0
  0
SCALE
  5
52
102
{ACAD_REACTORS
330
47
102
}
330
47
100
AcDbScale
 70
     0
300
1:50
140
1.0
141
50.0
290
     0
  0
SCALE
  5
53
102
{ACAD_REACTORS
330
47
102
}
330
47
100
AcDbScale
 70
     0
300
1:100
140
1.0
141
100.0
290
     0
  0
SCALE
  5
54
102
{ACAD_REACTORS
330
47
102
}
330
47
100
AcDbScale
 70
     0
300
2:1
140
2.0
141
1.0
290
     0
  0
SCALE
  5
55
102
{ACAD_REACTORS
330
47
102
}
330
47
100
AcDbScale
 70
     0
300
4:1
140
4.0
141
1.0
290
     0
  0
SCALE
  5
56
102
{ACAD_REACTORS
330
47
102
}
330
47
100
AcDbScale
 70
     0
300
8:1
140
8.0
141
1.0
290
     0
  0
SCALE
  5
57
102
{ACAD_REACTORS
330
47
102
}
330
47
100
AcDbScale
 70
     0
300
10:1
140
10.0
141
1.0
290
     0
  0
SCALE
  5
58
102
{ACAD_REACTORS
330
47
102
}
330
47
100
AcDbScale
 70
     0
300
100:1
140
100.0
141
1.0
290
     0
  0
SCALE
  5
59
102
{ACAD_REACTORS
330
47
102
}
330
47
100
AcDbScale
 70
     0
300
1/128" = 1'-0"
140
0.0078125
141
12.0
290
     0
  0
SCALE
  5
5A
102
{ACAD_REACTORS
330
47
102
}
330
47
100
AcDbScale
 70
     0
300
1/64" = 1'-0"
140
0.015625
141
12.0
290
     0
  0
SCALE
  5
5B
102
{ACAD_REACTORS
330
47
102
}
330
47
100
AcDbScale
 70
     0
300
1/32" = 1'-0"
140
0.03125
141
12.0
290
     0
  0
SCALE
  5
5C
102
{ACAD_REACTORS
330
47
102
}
330
47
100
AcDbScale
 70
     0
300
1/16" = 1'-0"
140
0.0625
141
12.0
290
     0
  0
SCALE
  5
5D
102
{ACAD_REACTORS
330
47
102
}
330
47
100
AcDbScale
 70
     0
300
3/32" = 1'-0"
140
0.09375
141
12.0
290
     0
  0
SCALE
  5
5E
102
{ACAD_REACTORS
330
47
102
}
330
47
100
AcDbScale
 70
     0
300
1/8" = 1'-0"
140
0.125
141
12.0
290
     0
  0
SCALE
  5
5F
102
{ACAD_REACTORS
330
47
102
}
330
47
100
AcDbScale
 70
     0
300
3/16" = 1'-0"
140
0.1875
141
12.0
290
     0
  0
SCALE
  5
60
102
{ACAD_REACTORS
330
47
102
}
330
47
100
AcDbScale
 70
     0
300
1/4" = 1'-0"
140
0.25
141
12.0
290
     0
  0
SCALE
  5
61
102
{ACAD_REACTORS
330
47
102
}
330
47
100
AcDbScale
 70
     0
300
3/8" = 1'-0"
140
0.375
141
12.0
290
     0
  0
SCALE
  5
62
102
{ACAD_REACTORS
330
47
102
}
330
47
100
AcDbScale
 70
     0
300
1/2" = 1'-0"
140
0.5
141
12.0
290
     0
  0
SCALE
  5
63
102
{ACAD_REACTORS
330
47
102
}
330
47
100
AcDbScale
 70
     0
300
3/4" = 1'-0"
140
0.75
141
12.0
290
     0
  0
SCALE
  5
64
102
{ACAD_REACTORS
330
47
102
}
330
47
100
AcDbScale
 70
     0
300
1" = 1'-0"
140
1.0
141
12.0
290
     0
  0
SCALE
  5
65
102
{ACAD_REACTORS
330
47
102
}
330
47
100
AcDbScale
 70
     0
300
1-1/2" = 1'-0"
140
1.5
141
12.0
290
     0
  0
SCALE
  5
66
102
{ACAD_REACTORS
330
47
102
}
330
47
100
AcDbScale
 70
     0
300
3" = 1'-0"
140
3.0
141
12.0
290
     0
  0
SCALE
  5
67
102
{ACAD_REACTORS
330
47
102
}
330
47
100
AcDbScale
 70
     0
300
6" = 1'-0"
140
6.0
141
12.0
290
     0
  0
SCALE
  5
68
102
{ACAD_REACTORS
330
47
102
}
330
47
100
AcDbScale
 70
     0
300
1'-0" = 1'-0"
140
12.0
141
12.0
290
     0
  0
ENDSEC
  0
EOF
